Enviado por:
anonimo

Abel Pintos, Bailando Con Tu Sombra Alelí

Imprimir
BAILANDO CON TU SOMBRA (ALELÍ)

Este es el punteo inicial….

e) ----------10---10---9---9---7---7-7/9---5--------|
B) -------------------------------------------------|
G) ----9/11--11---11---9---9---7---7-7/9---6--------|
D) -------------------------------------------------|
A) -------------------------------------------------|
E) -------------------------------------------------|

---------5------------------
----5/7------5/3-5-------3----
--------------------2/4-------
------------------------------
------------------------------
------------------------------

e) --------3/2-----------------------|
B) -----3------5-3-5/7---7---7-------|
G) --4-------------------------------|
D) ----------------------------------|
A) ----------------------------------|
E) ----------------------------------|

----------------------------------|
----7-5---------------------3-----|
-----------7---4----2---2h4-------|
----------------------------------|
----------------------------------|
----------------------------------|


y esta es la parte que va después del estribillo….

e) -----------------10---9---9---7---|
B) ----------------------------------|
G) -9/11---11------------9---9---7---|
D) ----------------------------------|
A) ----------------------------------|
E) ----------------------------------|
              x 2

------------------9---7---5---
------------------------------
---7/9-----9------9---7---6---
------------------------------
------------------------------
------------------------------
          x 2


e) ----------7---7----5---3----|-----2---6----9-|
B) ----------------------------|----------------|
G) -6/7------7---7----6---4--- |-----2---6----9-|
D) ----------------------------|----------------|
A) ----------------------------|----------------|
E) ----------------------------|----------------|
                 x 2
y al final.. termina con lo anterior..
y Lugo con esto:….

E)  2---3---2----------------------------
B) ------------5---3---2-----------------
G) ------------------------4---2---2h4v--
D) ---------------------------------------
A) ----------------------------------------
E) ----------------------------------------

Esto va unicamente al final… escuchenla
para ver bien los tiempos..
Esta es la tabs mas acertada que tengo… espero que les guste…
para criticas o correcciones a mi mail: [email protected]
si quieren algunas canciones punteadas... que no estan en la cuerda,
por ejemplo: CAMINO A SAN FRANCISO:: y otras...
no duden en consultarme
Aviso: Este fichero es trabajo propio de su transcriptor y representa su interpretación personal de la canción. El material contenido en esta página es para exclusivo uso privado, por lo que se prohibe su reproducción o retransmisión, así como su uso para fines comerciales.

Califica esta canción


Comentarios en Facebook