Enviado por:
anonimo

Pedro Guerra, Deseo

g-lou !!!, ya estoy de regreso, con mi segunda transcripcion, personalmente, 
creo que esta está mucho mejor, es una de las mejores canciones de PeDRO, 
se llama 'DESEO', y trata sobre lo efimero que puede llegar a ser el deseo, 
de como puedes anhelar algo tanto, que cuando por fin lo tienes en las manos, 
pierde todo su encanto.

Esta transcripcion como todas esta dedicada a ABiGAiL MaRTiNEz ToNGO.....
'quiero que sepas que lo que siento por ti es mas grande que un deseo y mas 
fuerte que un sentimiento...es amor, y el amor nunca se termina'

Gracias por existir, y darme esta razón de sentirme vivo de nuevo.....




          ||========================= intro ======================||

  La                   
|----------------------------------------------------------------------------|
|-------2-----2--------------2----2------------2-----2-----------2-----2-----|
|-----2---------2---------2----------2-------2---------2-------2---------2---|
|---2------2-----------2--------2----------2------2----------2------2--------|
|-0-----------------0--------------------0-----------------0-----------------|
|----------------------------------------------------------------------------|


  La
 |---------------|     |-----------------------------------------------------|
 |-------2-----2-|     |-------3----3------------2-----2-----------3----3----|
 |-----2---------|     |-----4----4------------2-----------------2--------2--|
 |---2------2----|     |---2-----------------2------2----------0------0------|
 |-0-------------|     |-----------------------------------------------------|
 |---------------| ... |-4--------------4-3----------------3-2---------------|
    te seguire hasta el final            te buscare en todas partes   bajo la luz y la sombra   

      |-----------0-----|
      |---------2---2---|
      |-------2-------2-|
      |-----2-----------|
      |-----------------|
      |--0--------------|
  en los dibujos del aireee...

|-----------0-----|      |-----------0----------------0-----|
|---------2---2---|      |--------3-----3----------2-----2--|
|-------2-------/-|      |------4----------------2----------|
|-----2-----------|      |----2----------------2------------|
|--0--------------|      |----------------------------------|
|-----------------|      |-4----------------3---------------|
      te seguire hasta el final                     te pedire de rodillas...que te desnudes amoorr

                  |-----------0-----|
                |---------2---2---|
                |-------2-------2-|
                |-----2-----------|
                |-----------------|
                |--0--------------|
  te mostrare mis heridas

  |----------0----------------0--------------------0-----------------------0-|
  |--------2---2-----------2-----2-------------3-----3----------1--------0---|
  |------2-------2-------2---------2---------2---------2----------2----------|
  |----2---------------2-------------------0-----0------------3--------2-----|
  |-0------------------------------------------------------------------------|
  |-----------------3-----------------3-2-----------------2-1--------0-------|
 Y   con  las  luces  del  alba, antes que tu te despiertes, se hara ceniza el deseo...me marchare   


 = SILENCIO =
|--------------|
|--------------|
|--------------|
|--------------|
|--------------|
|--------------|
  para siempre...

|----------0----------------2----------------------------------------0----|
|--------2---2------------3---3--------------2--2----------------3-----3--|
|------2----------------4-------4----------2------2------------2---2------|
|----2---------/------2------------------2----------2--------0------------|
|-0-----------------------------------------------------------------------|
|------------------4----------------4-3-----------------3-2---------------|
        te seguire hasta el final, entre los musgos del bosque, te´pedire tantas veces  

 |------------0------|
 |----------2---2----|
 |--------2-------2--|
 |------2------------|
 |-------------------|
 |-2-0---------------|
 que hagamos nuestra la noche...


|----------0----------------2----------------------------------------0----|
|--------2---2------------3---3--------------2--2----------------3-----3--|
|------2----------------4-------4----------2------2------------2---2------|
|----2---------/------2------------------2----------2--------0------------|
|-0-----------------------------------------------------------------------|
|------------------4----------------4-3-----------------3-2---------------|
         te seguire hasta el final con el teson del acero, te buscare por la lluvia, 

 |------------0------|
 |----------2---2----|
 |--------2-------2--|
 |------2------------|
 |-------------------|
 |-2-0---------------|
    para mojarme en tu beso...


 |----------0----------------0--------------------0------------------------0-|
 |--------2---2-----------2-----2-------------3-----3-----------1--------0---|
 |------2-------2-------2---------2---------2---------2-----------2----------|
 |----2---------------2-------------------0-----0-------------3--------2-----|
 |-0-------------------------------------------------------------------------|
 |-----------------3-----------------3-2------------------2-1--------0-------|
 Y   con las luces del alba, antes que tu te despiertes, se hara ceniza el deseo...me marchare para   

 |------------0----------------0------------------0-------------------------0-
 |--------2-----2----------2-----2------------3-----3------------1----------0-
 |------2---2------------2---2--------------2---2-----2--------2---------1--1-
 |----2----------------2------------------0---------------------------------2-
 |-0------------------------------------------------------------------------2-
 |------------------3----------------3-2------------------2-1--------1-0----0-
siempre            y cuando todo se acabe y se hagan polvo las hadas, no habe sabido por que me he
 

 = SILENCIO =
|--------------------|
|--------------------|
|--------------------|
|--------------------|
|--------------------|
|--------------------|
 vuelto loco por nadaaa

               |----------0-----------------------|
               |--------3---3-------------2-------|
               |------4-------4---------2---2-----|
               |----2-----------------2-------2---|
               |----------------------------------|
               |-4---------------4-3--------------|
te seguire hasta el final por la escalera del viento, para rogarte por dios...que me hagas sitio en 

          |------0--------0---------0--------0--------3--------3--------1---
          |----2---2----2---2-----2---2----2--------2---2----2--------2---2-
          |--2--------2---------0--------0------0-4--------4------4-3-------
          |-----------------------------------------------------------------
          |-----------------------------------------------------------------
          |-----------------------------------------------------------------
tus besos.....       y con las luces del alba antes que tu te despiertes, se hara ceniza el deseo

|-----------|     |---------------0-----------0---------------0-----------1-
|------0----|     |---------2---2-----------2--2------------3--3--------1---
|----2---2--|     |-------2---------------2-----2---------2-----2-----------
|--2--------|     |-----2-----2---------2---------------0-------------------
|-----------|     |---0-----------------------------------------------------
|-----------|     |-------------------3-------------3-2-------------2-1-----
me marchare par siempre, y cuando todo se acabe y se hagan polvo las hadas no habre

       |----------1--------0-----------------0----------------0-----------
       |--------1------------------------2-----------------2----2---------
       |-----------------1------------2----2-------------2----------------
       |---------------------------2-------------------2------------------
       |------------------------0-----------------0-----------------------
       |---2-1--------0-----------------------------3----------------2-3--
sabido por que, me he vuelto loco por nada, y con las luces del alba, antes que tu

 |---------0--------------------------------------------0-----------|
 |------3----3------------1------------0----------2---2---2---------|
 |----2--------2--------2---2--------1----------2---2---------------|
 |--0------------------------------2----------2---------------------|
 |-----------------------------------------0------------------------|
 |-----------------2-1----------0--------------------------------3--|
te dspiertes, se hara ceniza el deseo, me marchare para siempre, y cuando todo se acabe 

                  |---------------0---------------------------0
                |---------3-------3----------1--------------0
                |-------2-----2----------------2--------1---1
                |-----0-----0--------------3----------------2
                |-------------------------------------------2
                |--2------------------2-1-------------0-----0        
y se hagan polvo las hadas, no habre sabido por quee...me he vuelto locooo...por nadaaa.


|-------------1---0--|
|-------2---------2--|
|-----2---2-------2--|    FIN
|---2-------2-----2--|
|-0---------------0--|
|-----------------0--|


ESPERO Y LES GUSTE, VA CON TODO MI CARIÑO.....
Aviso: Este fichero es trabajo propio de su transcriptor y representa su interpretación personal de la canción. El material contenido en esta página es para exclusivo uso privado, por lo que se prohibe su reproducción o retransmisión, así como su uso para fines comerciales.

Califica esta canción


Comentarios en Facebook