Enviado por:
anonimo

Danilo Montero, Salmo 84

Imprimir
solo

e------------------------------------------------------------
b-----12/14--11----------12/14--11---------------------------
G--11-----------------11---------------11-11-13-13/15-13-----
D------------------------------------------------------------
A------------------------------------------------------------
E------------------------------------------------------------

e------------------------14-16/18--14--14h16/19-18-14--------
b------------------------------------------------------------
G--11-11-13-13/15-13-----------------------------------------
D------------------------------------------------------------
A------------------------------------------------------------
E------------------------------------------------------------


e--12/14-14h16-16b-16b-16------------------------------------
b------------------------------------------------------------
G------------------------------------------------------------
D------------------------------------------------------------
A------------------------------------------------------------
E------------------------------------------------------------

Espero que esta transcripcion les ayude y sea de bendicion
para sus vidas
Aviso: Este fichero es trabajo propio de su transcriptor y representa su interpretación personal de la canción. El material contenido en esta página es para exclusivo uso privado, por lo que se prohibe su reproducción o retransmisión, así como su uso para fines comerciales.

Califica esta canción


Comentarios en Facebook