Enviado por:
anonimo

No Te Va Gustar, Pensar

Imprimir
intro: primara parte, la guitarra sola, luego esto

G-----------------/------------------/-----------------------
D-----------------/------------------/-----------------------
A-----77-66-33-55-/-----77-66-33-555-/-----------------------X2
E--55-------------/--55--------------/-----------------------

G-------------------------------------
D-------------------------------------
A-------------------------------------
E--55778899101010--------------------
verso:

G----------------------/--------------------/
D--------5--77---------/-----5-77-----5-5---/
A------7-------555-----/---7------555-----5-/
E----5--------------33-/-5------------------/


en la parte que dice:"todo vuelve a ir...."


G-------------------/----/-----------------------------
D-------------25252-/----/-----------------------------
A------3-5----------/-X3-/----------11-11-11-11-11-----
E--1-5-----5--------/----/--3333333--------------------



El estribillo esd igual que el verso.


bueno asi es todo el tema espero q les sirva
 aguante ntvg y barata rock
Aviso: Este fichero es trabajo propio de su transcriptor y representa su interpretación personal de la canción. El material contenido en esta página es para exclusivo uso privado, por lo que se prohibe su reproducción o retransmisión, así como su uso para fines comerciales.

Califica esta canción


Comentarios en Facebook