Enviado por:
anonimo

Música Católica, La Guadalupana

Imprimir
La tablatura de la guadalupana

e:-----3-7-5-3-7-5-3-----------3-7-5-3-7-5-3----
B:-3-3---------------3-----3-3---------------3--
G:----------------------------------------------

e:-7-7-7-10-8-8--5-5-5-8-7-7--3-3-3-7-5-5-5-3-5-7-3---
B:----------------------------------------------------
G:----------------------------------------------------

e:-7-7-7-10-8-8--5-5-5-8-7-7--3-3-3-7-5-5-5-3-5-7-3---
B:----------------------------------------------------
G:----------------------------------------------------
Aviso: Este fichero es trabajo propio de su transcriptor y representa su interpretación personal de la canción. El material contenido en esta página es para exclusivo uso privado, por lo que se prohibe su reproducción o retransmisión, así como su uso para fines comerciales.

Califica esta canción


Comentarios en Facebook