Enviado por:
anonimo

No Te Va Gustar, La única Voz

Imprimir
bueno...aca va la Intro

e|-----------------------------------------------------------------------
b|-------------------------------------5---------------------------------
g|-----------------------------------------------------------------------
D|----(-3h5-----------5-5-4-3)-----3/5--------(-3h5----------55-4-3)-----
A|----(5---3-55-----5--------)----------------(5---3-55-----5------)-----
E|-----------------------------------------------------------------------
(en las partes entre paréntesis hay qe mutear las cuerdas)

e|--------5---5--||
b|---------------||
g|----3/5---5----||
D|---------------||
A|---------------||
E|---------------||

--------------------------------------------------------------------------


Y aca va el solo...ahh y no le puse los tiempos...asiqe escuchenla bien


|-------------------------------------------------------------------------
|-------------------------------------------------------------------------
|-----------5--------------------------3------------------3---------------
|--5^-5^--3-----5^po3h5---5-------5------2-3-3/5--5-5-5-5-----------------
|--5^-5^--------------------3-4-3---------------------------4/6-4-4-4-3—3h
|-------------------------------------------------------------------------

-------------------------------------------------------------------
-------------------------------------------------------------------
----------4-----------------------------------------------------7--
-----5-3-----3-5^-------5^----------5^po3h5----7---7---------------
4po3---------------------------------------------6---6h8---8po6----
-------------------6--------6--------------------------------------

|-------------------------------------------------------------------------
|-------------------------------------------------------------------------
|-------------------------------------------------------------------------
|-/11---/12---/14---------/11---/12---/14---------------------------------
|-------------------------------------------------------------------------
|----10----12----14----------10----12----14---------15--------------------
                                                Y no me olvido de tus...



Aguante no te va gustar, la vela y 11 tiros locoooo

salute! cuidensee y espero qe les sirva =)
Aviso: Este fichero es trabajo propio de su transcriptor y representa su interpretación personal de la canción. El material contenido en esta página es para exclusivo uso privado, por lo que se prohibe su reproducción o retransmisión, así como su uso para fines comerciales.

Califica esta canción


Comentarios en Facebook