Enviado por:
anonimo

No Te Va Gustar, Cero A La Izquierda

Imprimir
El bajo entra en el minuto 00:15

G|-------------2-1-444444444444-2-1--------------2-4-66666666-44444444-|
D|-222222222222---------------------444444444444-----------------------|
A|---------------------------------------------------------------------|
E|---------------------------------------------------------------------|

Todos debemos un día mirar para adentro(...)
G|----------------------------------------------------------|
D|----------------------------------------------------------|
A|-4-44-44-444-4-2-22-22-222-2-4-44-44-444-4-2-22-22-222-33-|
E|----------------------------------------------------------|

Llevo más de dos intentos(...)
G|----------------------------------------------------------------------|
D|----------------------------------------------------------------------|
A|-4-44-44-444-4-2-22-22-22222-0000000000000000-2222222222222222-222-33-|
E|----------------------------------------------------------------------|

Para salir no hay que golpear(...)
G|----------------------------------------------------------|
D|----------------------------------------------------------|
A|-4-44-44-444-4-2-22-22-222-2-4-44-44-444-4-2-22-22-222-33-|
E|----------------------------------------------------------|

Hoy me despido de todo (...)
G|----------------------------------------------------------|
D|----------------------------------------------------------|
A|-4-44-44-444-4-2-22-22-22222-0000000000-2222222222--------|
E|----------------------------------------------------------|

Yo quiero estar a la izquierda del cero(...)
G|-------------2-1-444444444444-2-1--------------2-4-66666666-44444444-|
D|-222222222222---------------------444444444444-----------------------|
A|---------------------------------------------------------------------|
E|---------------------------------------------------------------------|
x2

G|----------------------------------------------------------|
D|----------------------------------------------------------|
A|-4-44-44-444-4-2-22-22-222-2-4-44-44-444-4-2-22-22-222-33-|
E|----------------------------------------------------------|

Que frágil es mi mundo de nuevo (...)
G|----------------------------------------------------------|
D|----------------------------------------------------------|
A|-4-44-44-444-4-2-22-22-222-2-4-44-44-444-4-2-22-22-222-33-|
E|----------------------------------------------------------|

Que fácil es señalarme con el dedo(...)
G|----------------------------------------------------------|
D|----------------------------------------------------------|
A|-4-44-44-444-4-2-22-22-22222-0000000000-2222222222--------|
E|----------------------------------------------------------|

Yo quiero estar a la izquierda del cero(...)
G|-------------2-1-444444444444-2-1--------------2-4-66666666-44444444-|
D|-222222222222---------------------444444444444-----------------------|
A|---------------------------------------------------------------------|
E|---------------------------------------------------------------------|
X6

G|-------------2-1-444444444444-2-1--------------2-4-66666666-88888888-|
D|-222222222222---------------------444444444444-----------------------|
A|---------------------------------------------------------------------|
E|---------------------------------------------------------------------|


.

Eso es todo, creo.

NTVG ♥
Aviso: Este fichero es trabajo propio de su transcriptor y representa su interpretación personal de la canción. El material contenido en esta página es para exclusivo uso privado, por lo que se prohibe su reproducción o retransmisión, así como su uso para fines comerciales.

Califica esta canción


Comentarios en Facebook