Enviado por:
anonimo

Danilo Montero, Desesperado

Imprimir
Intro Acustica: Bm-Sol-Re-La

Intro Gtr. Eléctrica 1 con efecto:

0:05
---------------------------------------
--10-7~---10------7--7~/3--------------
--------------9~-----------------------
---------------------------------------
---------------------------------------
---------------------------------------

Aquí entra la 2 Gtr. Eletrica con los mismos signos
De la acústica
0:09
----------------------------------------------------
-----------------------------------------------------
----11----11------12-----12-----14---14--------------
--12---12------12-----12-----12----12-----14-12-14-12
-----------------------------------------------------
-----------------------------------------------------

-----------------------------------------------------
-----------------------------------------------------
---11---11-----12----12-----14---14------------------
-12--12-----12----12-----12----12-----14-12-14-12^---
-----------------------------------------------------
-----------------------------------------------------


Puente 1:

----------------------------------------------------
-----------------------------------------------------
----11----11------12-----12-----14---14--------------
--12---12------12-----12-----12----12-----14-12-14-12
-----------------------------------------------------
-----------------------------------------------------

-----------------------------------------------------
-----------------------------------------------------
---11---11-----12----12-----14---14------------------
-12--12-----12----12-----12----12-----14-12-14-12^---
-----------------------------------------------------
-----------------------------------------------------


Espero que les sirva
Claves:
^ sostener para arriba
Aviso: Este fichero es trabajo propio de su transcriptor y representa su interpretación personal de la canción. El material contenido en esta página es para exclusivo uso privado, por lo que se prohibe su reproducción o retransmisión, así como su uso para fines comerciales.

Califica esta canción


Comentarios en Facebook