Enviado por:
anonimo

Sin Bandera, Igual Que Yo

Imprimir
eSTA ES LA VERSION 100% CORRECTA
ESPERO QUE LE ENTIENDAN JEJEJE

INTRO
e|-5----5----5----5----5----5----5----5----
B|---2----2----2----2----3----3----3-----3-
G|-----------------------------------------
D|-----------------------------------------
A|-----------------------------------------
E|-----------------------------------------

e|-5----5----5----5----5----5----5----5----
B|---4----4----4----4----3----3----3-----3-
G|-----------------------------------------
D|-----------------------------------------
A|-----------------------------------------
E|-----------------------------------------

RIFF 1°
       E
e|-----0---0-----|-----0---0------
B|-------4---4---|-------4---4----
G|---4---------4-|---4---------4--
D|---------------|----------------
A|---------------|----------------
E|-0-------------|-0--------------

       B
e|-----0---0-----|-----0---0------
B|-------4---4---|-------4---4----
G|---4---------4-|---4---------4--
D|---------------|----------------
A|-2-------------|-2--------------
E|---------------|----------------

       A               A
e|-----0---0-----|-----0---0------
B|-------4---4---|-------4---4----
G|---4---------4-|---4---------4--
D|---------------|----------------
A|-0-------------|-0--------------
E|---------------|----------------

       C#m             B
e|-----0---0-----|-----0---0------
B|-------4---4---|-------4---4----
G|---4---------4-|---4---------4--
D|---------------|----------------
A|-4-------------|-2--------------
E|---------------|----------------

En esta parte dela cancion se puede tocar el RIFF 1°
o tambien se pueden tocar los acordes, eso es como prefieras.

RIFF 1°
E                     B
Por que sientes la pasión
                       A
Que arde siempre en tu respiración
C#m           B
Así  igual que yo

E                      B
Por que tienes la ansiedad
                 A
De vivir soñando en libertad
C#m          B
Así igual que yo

RIFF 2°
        A               B              E             G#m
e|------0---0-----|------0---0-----|-----0---0-----|---0---0------
B|--------4---4---|--------4---4---|-------4---4---|-----4---4----
G|---4----------4-|----4---------4-|---4---------4-|-----------4--
D|----------------|----------------|---------------|--4-----------
A|--0-------------|-2--------------|---------------|--------------
E|----------------|----------------|-0-------------|-4------------

RIFF 2°
        A              B                E               F#m
e|------0---0-----|------0---0-----|-----0---0-----|---0---0------
B|--------4---4---|--------4---4---|-------4---4---|-----4---4----
G|---4----------4-|----4---------4-|---4---------4-|-----------4--
D|----------------|----------------|---------------|--4-----------
A|--0-------------|-2--------------|---------------|--------------
E|----------------|----------------|-0-------------|-2------------

RIFF 2°
A                   B      E           G#m
 Por que tienes una fe imposible de romper
A                     B      E         F#m
 Por que sientes esa luz aunque no la ves
A                     B       E              G#m
 Por que aprendes a volar aunque tengas que caer
A                         B              E  F#m
 Por que sabes que no hay ya nada que perder

CORO:
        E                   B
Por eso tu me salvaras, me guiaras, me sanaras
              A                  C#m          B
Si caigo alguna vez tan solo lléname la fe y sanare
        E                       B
Por eso yo te cuidare, te esperare, vigilare
             A                         C#m
Que tengas que volver cuando tu amor muera de sed
    B               F#m
Y te amare, y te amare

RIFF1
E                      B
Por que sabes que el amor
                          A
Es lo que hace a un hombre algo mejor
C#m          B
Así igual que yo

RIFF 2°
A                   B      E           G#m
 Por que tienes una fe imposible de romper
A                     B      E         F#m
 Por que sientes esa luz aunque no la ves
A                     B       E              G#m
 Por que aprendes a volar aunque tengas que caer
A                         B              E  F#m
 Por que sabes que no hay ya nada que perder

CORO
        E                   B
Por eso tu me salvaras, me guiaras....(x2)
Aviso: Este fichero es trabajo propio de su transcriptor y representa su interpretación personal de la canción. El material contenido en esta página es para exclusivo uso privado, por lo que se prohibe su reproducción o retransmisión, así como su uso para fines comerciales.

Califica esta canción


Comentarios en Facebook