Enviado por:
anonimo

No Te Va Gustar, Chau

ESTROFAS

   Bm           G
E/----2---------3--/
A/-2----2-4-5-2----/
D/-----------------/
G/-----------------/

   A             F#
E/-5--0-5-7----5----/
A/-----------4---5--/
D/------------------/
G/------------------/

   Bm           G
E/----2---------3--/
A/--2---2-4-5-2----/
D/-----------------/
G/-----------------/

   A             F#
E/-5--0-5-7----5----2--/
A/-----------4---5----2/
D/---------------------/
G/---------------------/
esta base se repite durante todo el tema.





... lo que me corre en las venas...
    Em         F#
E/--3--3---------------2--2/
A/-----------------4-4-----/
D/---5--5--2-2--4-4--------/
G/-------------------------/



ESTRIBILLO

  Bm           G
E/----2--------3---/
A/--2---2-4-5-2----/
D/-----------------/
G/-----------------/

  A               F#
E/-5--0-5-7---5-----2-/
A/----------4---5----2/
D/--------------------/
G/--------------------/

  Bm            G
E/----2--------3---/
A/--2---2-4-5-2----/
D/-----------------/
G/-----------------/


...Ahora decidiste venir...
    Em         F#
E/--3--3---------------2--2/
A/-----------------4-4-----/
D/---5--5-2-2--4-4---------/
G/-------------------------/

ESTROFAS

Repite la base principal


-------------------
aca les dejo un muy buen tema de note...
espero que les guste Depe. abrazo
Aviso: Este fichero es trabajo propio de su transcriptor y representa su interpretación personal de la canción. El material contenido en esta página es para exclusivo uso privado, por lo que se prohibe su reproducción o retransmisión, así como su uso para fines comerciales.

Califica esta canción


Comentarios en Facebook