Enviado por:
anonimo

Enanitos Verdes, Una Absurda Canción De Amor

Imprimir
Esta cancion tan chingona la saco el buen Alonzo Walsh, mejor conocido
en el bajo mundo de los foros como el Saltamontes Gere. asi que el
credito es de el, cualquier reclamacion y/o felicitacion hacerla a
[email protected] que la disfruten.

*Intro:

    E               B                     A              E
e. -------------------7---7------7/9/11-|-----5---5h7-7------------------|
B. ----5---5/7-9-7----7-----75---------|-----5---5h7-7------5-------5---|
G. ---4---------------8----------8/9/11-|--------------------4---2/4---4-|
D. --6---6--------------9---------------|-------7------------6-6---------|
A. -7-----------------------------------|---7--------------7-------------|
E. -----------------7-------------------|-5--------------0---------------|

    E                B
e. ----------------------7---7-----7/9/119-|
B. -----5---5/7-9-7------7-----75----------|
G. ----------------------8---------8/9/119-|
D. ---6---6----------------9----------------|
A. -7------------------9--------------------|
E. ------------------7----------------------|

    A                       E
e. -----7---7/95----------------------4------5------7-|
B. -----7---------7/95-5-------5--2/5----5/7----7/9---|
G. -----------------------------4----------------------|
D. -------7---------------6-----6----------------------|
A. ---7-----------------------7------------------------|
E. -5-----------------------0--------------------------|

   C#m                B
e. -------9h11-12-11------7-7-7-7-9-7-|
B. -----9-9---------------7-----------|
G. ---------------------9-----9-------|
D. ---11--------------9-----9---------|
A. -0---------------------------------|
E. -----------------------------------|

 F#                        E     B
e. -------------------0------------------------|
B. ----------2--2-------2------5---4-4-----4---|
G. ----3-4--3-----3---------------4----4-----4-|
D. -/4-----4--------4--------6---4-------4-----|
A. -----------------------/7-------------------|
E. --------------------------------------------|

    A               E
e. ---------------------|
B. -2/5-2---------------|
G. -------4-2-2p1p0-----|
D. -----------------2---|
A. ---------------------|
E. -------------------0-|


*Verso:


E           B
Me vi gravitando                        fill 1:       riff 2:
A          E                         E. -------------|---------|
a tu alrededor (fill 1)              B. -------------|---------|
E                 B                  G. ---2-1-------|-1h2p1---|
voy cayendo en espiral               D. -------2h4p2-|-------2-|
 A             E                     A. -2-----------|---------|
directo a tu corazón (fill 2)        E. -------------|---------|
C#m        B  F#         A
algo esencial me sustentará, hey


    E             B                A             E
e. -------------------7-----9/11-|-----7/9-9-9-----------------------|
B. -5---5h7-9-7---------7--------|-----5/7-7-7-----------------------|
G. -4-------------8-------8-9/11-|-6-------------1---2/4-2-1---------|
D. -6-------------9--------------|-7-------------2-----------2-2h4-2-|
A. -7-------------9--------------|-7-------------2-------------------|
E. ---------------7--------------|-5-------------0-------------------|


 E           B
Tengo impregnado
 A         E
todo tu calor (fill 1)
 E         B
esa grata sensación
A            E
de tu cuerpo y tu olor
C#m       B  F#          A         E
puedo sentir la profundidad de tu ser.


*Coro:


E             B     A            E
No ves que estoy muriendome de amor por vos
                 B      A          E
no se más que hacer, quiero ya volverte a ver
    C#m            B         F#       A
no seré fugaz y podré volar respirandote
        E
junto a mi..

(riff)
    E                  B                  A                       E
e. -----------------------------------------------------------------------
B. -------12-----------------12------------------------------12-14-14-12~-
G. -11b13----11p9-11~--11b13----11p9-11~-/9-9-9-9-9/13-13-13--------------
D. -----------------------------------------------------------------------
A. -----------------------------------------------------------------------
E. -----------------------------------------------------------------------


e. -------------------------|
B. -/10-9-------------------|
G. -------11-9--------------|
D. ------------11-9---------|
A. -----------------11-9-7~-|
E. -------------------------|

    E                  B                  A                       E
e. -----------------------------------------------------------------------
B. -------12-----------------12------------------------------12-14-14-12~-
G. -11b13----11p9-11~--11b13----11p9-11~-/9-9-9-9-9/13-13-13--------------
D. -----------------------------------------------------------------------
A. -----------------------------------------------------------------------
E. -----------------------------------------------------------------------


e. -----------------------------|
B. -/10-9-----------------------|
G. -------11-9-11b13r11-9----9~-|
D. -----------------------11----|
A. -----------------------------|
E. -----------------------------|


    C#m      B  F#          A         E
...puedo sentir la profundidad de tu ser.


*Coro:


E             B     A            E
No ves que estoy muriendome de amor por vos
                 B      A          E
no se más que hacer, quiero ya volverte a ver
    C#m            B         F#       A
no seré fugaz y podré volar respirandote.



E             B     A            E
No ves que estoy muriendome de amor por vos
                 B      A          E
no se más que hacer, quiero ya volverte a ver



(Entra riff)
E             B     A            E
No ves que estoy muriendome de amor por vos
                 B      A          E
no se más que hacer, quiero ya volverte a ver.

(riff)
    E                  B                  A                       E
e. -----------------------------------------------------------------------
B. -------12-----------------12------------------------------12-14-14-12~-
G. -11b13----11p9-11~--11b13----11p9-11~-/9-9-9-9-9/13-13-13--------------
D. -----------------------------------------------------------------------
A. -----------------------------------------------------------------------
E. -----------------------------------------------------------------------


e. -------------------------|
B. -/10-9-------------------|
G. -------11-9--------------|
D. ------------11-9---------|
A. -----------------11-9-7~-|
E. -------------------------|

    E                  B                  A                       E
e. -----------------------------------------------------------------------
B. -------12-----------------12------------------------------12-14-14-12~-
G. -11b13----11p9-11~--11b13----11p9-11~-/9-9-9-9-9/13-13-13--------------
D. -----------------------------------------------------------------------
A. -----------------------------------------------------------------------
E. -----------------------------------------------------------------------


e. -----------------------------|
B. -/10-9-----------------------|
G. -------11-9-11b13r11-9----9~-|
D. -----------------------11----|
A. -----------------------------|
E. -----------------------------|
                              (Fade Out)
Aviso: Este fichero es trabajo propio de su transcriptor y representa su interpretación personal de la canción. El material contenido en esta página es para exclusivo uso privado, por lo que se prohibe su reproducción o retransmisión, así como su uso para fines comerciales.

Califica esta canción


Comentarios en Facebook