Enviado por:
anonimo

Música De Tv, Inspector Gadget

Imprimir
G-------------------------
D-------0-2---1---0-------
A-0-2-3-----3---2---3-----
E-------------------------

G-----------2-1-----------
D-------0-2---------------
A-0-2-3-------------------
E-------------------------

G-------------------------
D-------0-2---1---0-------
A-0-2-3-----3---2---3-----
E-------------------------

G--2-1-0--------2---------
D--------4-3--2-----------
A-------------------------
E-------------------------

G-------------------------
D-------0-2---1---0-------
A-0-2-3-----3---2---3-----
E-------------------------

G-----------2-1-----------
D-------0-2---------------
A-0-2-3-------------------
E-------------------------

G-------------------------
D-------0-2---1---0-------
A-0-2-3-----3---2---3-----
E-------------------------

G-------------------------
D-------------------------
A-0--------------0--------
E---4-3-2-1----0----------
Aviso: Este fichero es trabajo propio de su transcriptor y representa su interpretación personal de la canción. El material contenido en esta página es para exclusivo uso privado, por lo que se prohibe su reproducción o retransmisión, así como su uso para fines comerciales.

Califica esta canción


Comentarios en Facebook