Enviado por:
anonimo

Reik, Invierno

En la intro y el primer verso el bajo no toca.


Coro:

|--------------------------------------------|
|--------------------------------------------|   x2
|-----------4---4----------------------------|
|0---0----0----------2-4---4----4-5---5----4-|

|--------------------------------------------|
|---------4----------------------------------|
|-----------4---4----4-2---2-----------------|
|2---2--------------------------0-2---------5|



verso 2:

|--------------------------------------------|
|--------------------------------------------|   x2
|4---4----------------------------2---2----2-|
|---------4-5---5----4-0---0----0------------|

|--------------------------------------------|
|---------2----------------------------------|
|-----------4---4----------------------------|
|0---0---------------2-4---4----4-5---5----5-|



coro



puente:

|--------------------------------------------|
|--------------------------------------------|
|4---4-4--4----------------------------------|
|-----------5---5-5--5-5---5-5--5-7---7-7--7-|



coro



final:

|--4-/-9-(9)-------4-/-9-(9)--|
|2---------------2------------|
|-----------------------------|
|-----------------------------|
Aviso: Este fichero es trabajo propio de su transcriptor y representa su interpretación personal de la canción. El material contenido en esta página es para exclusivo uso privado, por lo que se prohibe su reproducción o retransmisión, así como su uso para fines comerciales.

Califica esta canción


Comentarios en Facebook