Enviado por:
anonimo

Canciones Populares, Canción De Cuna

Imprimir
LA MANDO PORQUE ME PARECE
QUE DEBERÍA SONAR ASÍ EL FINAL:

e----0-0-3----0-0-3---0-3-8-7--5-5-3
B-----------------------------------
G-----------------------------------
D-----------------------------------
A-----------------------------------
E-----------------------------------


e-----0-1-1---------0-1-------------
B---3-------------3-----------------
G-----------------------------------
D-----------------------------------
A-----------------------------------
E-----------------------------------

e-----1-7-5-3----7-8----------------
B---3-------------------------------
G-----------------------------------
D-----------------------------------
A-----------------------------------
E-----------------------------------

MI CORREO: [email protected]
Aviso: Este fichero es trabajo propio de su transcriptor y representa su interpretación personal de la canción. El material contenido en esta página es para exclusivo uso privado, por lo que se prohibe su reproducción o retransmisión, así como su uso para fines comerciales.

Califica esta canción


Comentarios en Facebook