Enviado por:
anonimo

Danilo Montero, Bueno Es Alabar

Imprimir
Bien esta canción me encanta ahí les va:

Esto es lo que hace la flauta al inicio:
e)|---------------------------------|
B)|--8-8-8-8--5---------------5--7--|
G)|--------------7--5--7---7--------|
D)|---------------------------------|
A)|---------------------------------|
E)|---------------------------------|

e)|---------------------------7--5--|
B)|--8-8-8-8--5---------------------|
G)|--------------7--5--7---7--------|
D)|---------------------------------|
A)|---------------------------------|
E)|---------------------------------|

e)|-----------------------------|
B)|--8-8-8-8--5-----------------|
G)|--------------7--5--7--------|
D)|-----------------------------|
A)|-----------------------------|
E)|-----------------------------|

e)|---------------------5----|
B)|--5--7--8--7--5--8--------|
G)|--------------------------|
D)|--------------------------|
A)|--------------------------|
E)|--------------------------|

G         C         D    C       D
Bueno es alabarte Señor ¡Tu nombre!
G         C          D       C         D
Darte gloria honra y honor ¡Por siempre!
G         C         D
Bueno es alabarte señor
   Em              D
Y gozarme en tu poder//

Coro

G                  D    C  D
Porque grande eres tu
G                  D
Grandes son tus obras   C  D
G                 D
Porque grane eres tú
             Em                  D
Grande es tu amor grande son tus obras//

Bueno es alabarte...

Coro

Solo de teclado

Coro(x3)

Comentarios o sugerencias: [email protected]
Quiero mandar saludos a la iglesia Asamblea de Dios en Bolivia
Que Dios les bendiga...
Aviso: Este fichero es trabajo propio de su transcriptor y representa su interpretación personal de la canción. El material contenido en esta página es para exclusivo uso privado, por lo que se prohibe su reproducción o retransmisión, así como su uso para fines comerciales.

Califica esta canción


Comentarios en Facebook