Enviado por:
anonimo

Música De Tv, The X Files

Imprimir
Esta es una correcion de la anterior

Un saludo pa' cañetecity de FraFri, tambien uno
pal octavo del isj
 y otro pa' mis amigos diego y lore, y pa' marce igual

e|----------------------------------------------
B|----------------------------------------------
G|----------------------------------------------
D|----2-0-2-5-2-----2-0-2-7-2-------------------
A|-0-------------0------------------------------
E|----------------------------------------------

e|----------------------------------------------
B|----------------------------------------------
G|-5-4-2-0-2------5-4-2-0-4---------------------
D|-----------2---------------2------------------
A|----------------------------------------------
E|----------------------------------------------
Aviso: Este fichero es trabajo propio de su transcriptor y representa su interpretación personal de la canción. El material contenido en esta página es para exclusivo uso privado, por lo que se prohibe su reproducción o retransmisión, así como su uso para fines comerciales.

Califica esta canción


Comentarios en Facebook