Enviado por:
Anonimo

Canciones Populares, La Internacional

Imprimir
E||-------------------|------------------------|---------------------|
B||-------------------|------------1-----------|---------------------|
G||-------------------|--3------2-----3--------|--0---------------0--|
D||--------------3----|------------------3--0--|--1--------1---------|
A||-------------------|------------------------|---------------------|
E||-------------------|------------------------|---------------------|


                                                                       
------------------------|--------------------|------------------------|
--1---------------------|--------------------|------------1-----------|
---------3--2--0--------|--------------------|--3------2-----3--------|
------------------3--1--|--0------------3----|------------------3--0--|
------------------------|--------------------|------------------------|
------------------------|--------------------|------------------------|


                                                                     
-----------------------|----------------------|---------------------|
-----------------1-----|-------1----4---------|---------------3--1--|
--0-----------0-----3--|--2--------------2----|--3------------------|
--1--------1--1--1--1--|--3----3----3----3----|---------------------|
-----------------------|----------------------|---------------------|
-----------------------|----------------------|---------------------|


                                                                       
-----------------------|-----------------------|----------------------|
-----------------------|-----------------------|------------1---------|
--2--------0--2--3--0--|--2--------------------|--0------0---------3--|
--3-----------3--5-----|--3--------3--3--1--3--|------------1------5--|
-----------3--------3--|-----------------------|----------------------|
-----------------------|-----------------------|----------------------|


                                                                      
--------------------|------------------------|-----------------------|
---------------1----|--1---------------------|--3--------------------|
--2-----------------|---------2--------------|--3--------3--0--2--3--|
--------------------|--3------3--3--3--1--3--|-----------------------|
--------------------|------------------------|-----------------------|
--------------------|------------------------|-----------------------|


                                                                   
----------------------|---------------------|---------------------|
-------1--------------|---------------3---1-|---------------------|
--2---------3----0----|---------------------|--3------------------|
----------------------|--3------------3---3-|-----------3------0--|
------------3----3----|---------------------|---------------------|
----------------------|---------------------|---------------------|


                                                                 
---------------------|---------------------|--------------------|
---------------1-----|---------------------|--------------------|
--0----------------3-|--2--------0---------|--------------------|
--1------------1---1-|--3-------------3----|--3------------3----|
---------------------|---------------------|--------------------|
---------------------|---------------------|--------------------|


                                                                   
---------------------|---------------------|----------------------|
--3--------1---------|---------------------|-----------------1----|
--3------------------|--3--------2------2--|--0---------0---------|
-----------3----3----|--5--------0------0--|--1------4--1---------|
---------------------|---------------------|-----------------3----|
---------------------|---------------------|----------------------|


                                                                  
---------------------|---------------------|---------------------|
--1------------3---1-|---------------------|---------------1-----|
---------------------|--3------------------|--0----------------3-|
--3------------3---3-|-----------3------0--|--1------------1---1-|
---------------------|---------------------|---------------------|
---------------------|---------------------|---------------------|


                                                                 
---------------------|--------------------|--1------------------|
---------------------|--3------------3----|--3--------4----3----|
--2--------0---------|--3-----------------|-----------0----0----|
--3-------------3----|--------------------|---------------------|
---------------------|--------------------|---------------------|
---------------------|--------------------|---------------------|


                                                                     
------------------------|----------------------|-------------------||
--1-----1--3--4------4--|--3------3--1------1--|-------------------||
-----3--0-----5------5--|--3------3------------|--3----------------||
------------------------|------------3------3--|--3----------------||
------------------------|----------------------|--5----------------||
------------------------|----------------------|-------------------||


Para cualquier duda consulta o critica mi correo es [email protected]

Fuente original: LaCuerda
Colaborador original: Oscar [[email protected]]
Aviso: Este fichero es trabajo propio de su transcriptor y representa su interpretación personal de la canción. El material contenido en esta página es para exclusivo uso privado, por lo que se prohibe su reproducción o retransmisión, así como su uso para fines comerciales.

Califica esta canción


Comentarios en Facebook