Enviado por:
anonimo

Sin Bandera, Sirena

Imprimir
Riff 1         Riff 2         Riff 3         Riff 4 
|---------|    |---------|    |---------|    |-----------|
|---------|    |---------|    |---------|    |-----------|
|-5-------|    |---------|    |---------|    |-7-7-------|
|---5-5-7-|    |-0-5-5-7-|    |-0-7-7-5-|    |-----7-7-5-|

Riff 5              Riff 6           Riff 7
|---------------|   |-------------|  |---------|
|---------------|   |-------------|  |---------|
|-------------5-|   |-5-5-5-5/7-5-|  |-7-7-5---|
|-5-5-5-5-5/7---|   |-------------|  |-------7-|

Intro - Riff 1

Riff 1      Riff 1     
Me duele en el fondo de mi corazón

Riff 2      Riff 3 
la herida no ha cerrado todavía

Riff 1      Riff 1 
no hay forma en que pueda olvidarte yo

Riff 2      Riff 3
lo siento te has llevado mi vida

                      Riff 1
Siempre intento olvidarte

                    Riff 1 
y te vuelvo a encontrar

                   Riff 1            Riff 4
siempre en cada rincón y debajo del mar

                  Riff 1  
si me voy del planeta 

                 Riff 1
eres estrella fugaz

                      Riff 1
si en las noches yo duermo

                     Riff 4
en mis sueños tú estas

            Riff 5
Eres sirena, oigo tu canto

                   Riff 6 
y me ahogo en tu cadera

                   Riff 5
porque tú vuelvas yo daría lo que fuera

                   Riff 6
porque me quite con tu piel esta condena

                   Riff 7
que me mata y me envenena

Mira morena, baila conmigo
y me sacas esta pena
porque no hay cosa para mí
que sea tan buena como tus labios
en mis labios, vuelve a casa te lo ruego
Ves nena

Riff 1
eres el mar

Riff 1
eres el mar

Despues se repite
Aviso: Este fichero es trabajo propio de su transcriptor y representa su interpretación personal de la canción. El material contenido en esta página es para exclusivo uso privado, por lo que se prohibe su reproducción o retransmisión, así como su uso para fines comerciales.

Califica esta canción


Comentarios en Facebook