Enviado por:
anonimo

Danilo Montero, Es El Rey

Imprimir
Hola, la verdad no se que tablatura hicieron los amigos que
intentaron sacar esta canción, creo que la habrán sacado cuando
estaban zombis jajajaj porque no me parece, bueno aquí les mando
la verdadera tablatura de esta canción y les aseguro que esta en
un 95% segura, solo por la 2da.parte del slap que no me cuadra
bien; se necesita un bajo de 5 cuerdas para q suene bien
chévere, bueno hasta luego amigos y que Dios los bendiga :)

(h:hammer; s:slide)
:Intro: Teclado y guitarra

:Estrofa:
El es el Rey infinito...

G:----------:----------:
D:----------:----------:
A:----------:---------3:                    (x3)
E:----------:5-5--3h5--:
B:5-5--5h3-5:----------:

Pues mi vida compró...

G:----------:----------:
D:----------:----------:
A:----------:-------0h5:
E:3-3--3h0-3:----------:
B:----------:3-3—-3----:

:Coro:
:(a) El es el Rey,...

G:---------:--------:-------:-------:
D:---------:--------:-------:-------:
A:7--7s10s5:3--5s7s5:-------:5-5-5-5:       (x2)
E:---------:--------:3-3-3-3:-------:
B:---------:--------:-------:-------:

:(b) su reino eterno es,...

G:--------:--------:--------:--------:
D:--------:--------:--------:--------:
A:3-3-3-3-:5-5-5-5-:7-7-7-7-:3-3-3-3-:
E:-3-3-3--:-5-5-5--:-7-7-7--:-3-3-3--:
B:--------:--------:--------:--------:

:(c) El es el Rey que...

G:---------------:----------:--------:
D:---------------:----------:--------:
A:---------------:3-3-3-3-3-:-5s10s5-:
E:5-5-5-5-5-5-5-5:-----5-5--:--------:
B:---------------:----------:--------:

:Estrofa:
:Coro:
:(a) El es el Rey,...
:(b) su reino eterno es,...
:(c) El es el Rey que...

G:---------------:----------:--------:
D:---------------:----------:--------:
A:---------------:3-3-3-3-3-:--------:
E:5-5-5-5-5-5-5-5:-----5-5--:-5s12---:
B:---------------:----------:--------:

:Slap:

G:9----9----9----:16s14-------:
D:---------------:------18s17-:
A:-7-7--7-7--7-7-:------------:
E:---------------:------------:
B:---------------:------------:

:Coro:

:(a) El es el Rey,...
:(b) su reino eterno es,...
:(c) El es el Rey que...

G:---------------:----------:--------:
D:---------------:----------:--------:
A:---------------:3-3-3-3-3-:--------:
E:5-5-5-5-5-5-5-5:-----5-5--:-5s7----:
B:---------------:----------:--------:

:A medio tiempo con el bombo:

G:---------:-------:
D:---------:-------:
A:7-7-7-7-7:7s19---:
E:---------:-------:
B:---------:-------:

Ultimo coro:

:(a) El es el Rey,...
:(b) su reino eterno es,...
:(c) El es el Rey que...

G:---------------:----------:--------:
D:---------------:----------:--------:
A:---------------:3-3-3-3-3-:--------:
E:5-5-5-5-5-5-5-5:-----5-5--:-10s12--:
B:---------------:----------:--------:

Un saludo para todos mis hermanos en Cristo Jesús
y para la Misión Bíblica Carismática.
Aviso: Este fichero es trabajo propio de su transcriptor y representa su interpretación personal de la canción. El material contenido en esta página es para exclusivo uso privado, por lo que se prohibe su reproducción o retransmisión, así como su uso para fines comerciales.

Califica esta canción


Comentarios en Facebook