Enviado por:
anonimo

Danilo Montero, La Niña De Tus Ojos

           C    Cmaj7
me viste a mi
                  G
cuando nadie me vió
             Am  Amsus4
me amaste a mi
                  F  Fmaj7
cuando nadie me amó

            C      Cmaj7
y me diste nombre
           G
yo soy tu niña
                Amsus
la niña de tus ojos
                     F   Fmaj7
por que me amaste a mi


C                         G
te amo mas que a mi vida
                            Am
te amo mas que a mi vidaaa
                          F    Fmaj7
te amo mas que a mi vida mass

/Fmaj7/           /Amsus/
E|------------| E|------------|
A|--4---------| A|------------|
D|--4---------| D|---2--------|
G|--2---------| G|---2--------|
B|--1---------| B|------------|
e|------------| e|-1----------|

/Cmaj7/         /G/
E|------------| E|----3-------|
A|--3---------| A|----2-------|
D|---2--------| D|------------|
G|------------| G|------------|
B|------------| B|----3-------|
e|------------| e|----3-------|





UN saludo pa los cabros De K-iros
Aviso: Este fichero es trabajo propio de su transcriptor y representa su interpretación personal de la canción. El material contenido en esta página es para exclusivo uso privado, por lo que se prohibe su reproducción o retransmisión, así como su uso para fines comerciales.

Califica esta canción


Comentarios en Facebook