Enviado por:
anonimo

Danilo Montero, La Casa De Dios

Hola amigos este es el bajeo de la canción, es muy fácil,
bueno ahí les va y que Dios los bendiga  :)

:Intro: (2 veces)

G:-----------:-----------:-----------:-----------:
D:-----------:-----------:-----------:-----------:
A:5-5-5-5-5-5:0-0-0-0-0-0:2-2-2-2-2-2:-----------:
E:-----------:-----------:-----------:3-3-3-3-3-3:

G:-----------:-----------:-----------:-----------:
D:-----------:-----------:-----------:-----------:
A:5-5-5-5-5-5:0-0-0-0-0-0:-----------:-----------:
E:-----------:-----------:3-3-3-3-3-3:3-3-3-3-3-3:

:Estrofa 1:
:(a) Mejor es un...

G:-----------:-----------:-----------:-----------:
D:-----------:-----------:-----------:-----------:     (X3)
A:5-5-5-5-5-5:0-0-0-0-0-0:2-2-2-2-2-2:-----------:
E:-----------:-----------:-----------:3-3-3-3-3-3:

:(b) Que todo el...

G:-----------:-----------:-----------:-----------:
D:-----------:-----------:-----------:-----------:
A:5-5-5-5-5-5:0-0-0-0-0-0:2-2-2-2-2-2:2-2-2-2-2-2:
E:-----------:-----------:-----------:-----------:

:(c) Que todo el...

G:-----------:-----------:-----------:-----------:
D:-----------:-----------:-----------:-----------:
A:5-5-5-5-5-5:0-0-0-0-0-0:-----------:-----------:
E:-----------:-----------:3-3-3-3-3-3:3-3-3-3-3-3:

:Coro: (2 veces)

G:-----------:-----------:-----------:-----------:
D:-----------:-----------:-----------:-----------:
A:5-5-5-5-5-5:0-0-0-0-0-0:2-2-2-2-2-2:-----------:
E:-----------:-----------:-----------:3-3-3-3-3-3:

G:-----------:-----------:-----------:-----------:
D:-----------:-----------:-----------:-----------:
A:5-5-5-5-5-5:0-0-0-0-0-0:-----------:-----------:
E:-----------:-----------:3-3-3-3-3-3:3-3-3-3-3-3:

:Intermedio de Guitarra:(igual que el coro, una vez)
:Estrofa 2:
:(a) Arde mi alma...
:(b) Anhela de su compañía...
:(c) Anhela de su compañía...

G:-----------:-----------:-----------:-------------:
D:-----------:-----------:-----------:--5-----5----:
A:5-5-5-5-5-5:0-0-0-0-0-0:-----------:5---5----5---:
E:-----------:-----------:3-3-3-3-3-3:-----------3-:

:Coro: (2veces)
:En la casa de Dios...: (2 veces, igual que el coro)
:Coro: (2veces)
:En la casa de Dios...: (2 veces, igual que el coro)

:Final:
:En la casa de Dios:

G:-----------:
D:-----------:
A:-----5-----:
E:-----------:
Aviso: Este fichero es trabajo propio de su transcriptor y representa su interpretación personal de la canción. El material contenido en esta página es para exclusivo uso privado, por lo que se prohibe su reproducción o retransmisión, así como su uso para fines comerciales.

Califica esta canción


Comentarios en Facebook