Enviado por:
anonimo

Música De Tv, Dragon Ball Z - Cha-la-head-cha-la

La corrijo, tambien me gustaba mucho esta serie.

Intro:
e--7------------7-----------7-----------7---------
B----7--------7---7-------7---7-------7---7-------
G------9----9-------9---9-------9---9-------9-----   [¡Rapido!]
D--------9------------9-----------9-----------9---

E - D - C   [Sigan La musica de intro con esto luego del arpegio]


E                            D
El cielo resplandece a mi alrededor [alrededor]
     C               G                       B7
al volar destellos brillan en las nubes sin fin,
  E                                 D
con libertad puedes cruzar hoy el cielo azul [el cielo azul]
       C                      G            B7
la verdad huye a un golpe de pronto en tí,

C#m            B           E
como si un volcán hiciera una erupción,
D
derrite un gran glaciar,
C#m                             B
podrás ver de cerca un gran dragón.


G   A   G    A
Cha-la-head-Cha-la,
D     G     A       F#
no importa lo que suceda,
Bm      G         C      A
siempre el ánimo mantendré,
G   A    G   A
Cha-la-Head-Cha-la,
D  G     A       F#     Bm
vibrante mi corazón siente emoción,
          A#
haré una Genki-Dama,
G   A   G   A
Cha-la-Head-Cha-la,
D  G        A    F#    Bm      G             C      A
no pienses nada sólo escucha, sueños hay en tu corazón,
G   A   G   A
Cha-la-Head-Cha-la,
D    G     A        F#
no importa lo que suceda,
 Bm                 A#
sonreiré el día de hoy.

Termino:  G E A# C D [Sigan La musica]

e--10----------10----------10----------10--------------------
B----10------10--10------10--10------10--10-----10-10--------
G------12--12------12--12------12--12------12--------12------
D--------12----------12----------12----------12--------0-----
A------------------------------------------------------0-----


Todos los que vean estos geniales acordes, espero que se fijen de
la maravilla en esta musica ajena a lo que tocamos siempre.
Aviso: Este fichero es trabajo propio de su transcriptor y representa su interpretación personal de la canción. El material contenido en esta página es para exclusivo uso privado, por lo que se prohibe su reproducción o retransmisión, así como su uso para fines comerciales.

Califica esta canción


Comentarios en Facebook