Enviado por:
anonimo

No Te Va Gustar, Clara

Imprimir
Solo:


E/-------------------------------------------------------
B/---7-7---5-8-7-5-3-3-2/5-3----10-10-10-10-10-8-12-10-7-
G/---7-7---6-9-7-6-4-4-3/6-4----11-11-11-11-11-9-12-11-7-
D/-------------------------------------------------------
A/-------------------------------------------------------
E/-------------------------------------------------------

E/------------9-10-9-(10)-9----------9-------------------
B/---12-11-12---------------12-12-11---12----------------
G/---11--------------------------------------------------
D/-------------------------------------------------------
A/-------------------------------------------------------
E/-------------------------------------------------------

E/-----------------7-7-7-7-(6)---6---6---7---------------
B/---10--9-8-----8-7-7-7-7-----7---7---7-7---------------
G/---11-10-9----9----------------------------------------
D/-----------11------------------------------------------
A/-------------------------------------------------------
E/-------------------------------------------------------


Dedicado a todos los amantes de NTVG.
Aviso: Este fichero es trabajo propio de su transcriptor y representa su interpretación personal de la canción. El material contenido en esta página es para exclusivo uso privado, por lo que se prohibe su reproducción o retransmisión, así como su uso para fines comerciales.

Califica esta canción


Comentarios en Facebook