Enviado por:
anonimo

Danilo Montero, Cantaré De Tu Amor

Imprimir
::InTrO::

B|------------|-------------|------------|-------------------|
E|------------|-------------|------------|-------------------|
A|------------|-------------|------------|----------------10s|
D|-10---------|-10-----10-10|-10---------|-10---10h12h10-----|
G|------------|-------------|------------|-------------------|

B|------------|-------------|------------|------|-------|------||
E|------------|-------------|------------|------|-------|----0-||
A|-3----------|-3-----------|-3----------|-3----|-------|------||
D|------------|-------------|------------|------|-------|------||
G|------------|-------------|------------|------|-------|------||


::EsTrOfA::
B|-----------|-------------|------------|------------||
E|-1---1-1---|-0---0-0-----|-1---1-1----|-0---0-0----||
A|-----------|-------------|------------|------------||
D|-----------|-------------|------------|------------||
G|-----------|-------------|------------|------------||

B|-----------|-------------|------------|------------||
E|-1---1-3---|-5---5-5---5s|-1---1-1----|-3---3-3----||
A|-----------|-------------|------------|------------||
D|-----------|-------------|------------|------------||
G|-----------|-------------|------------|------------||


::CoRo::
B|------------|------------|------------|------------||
E|------------|----------3s|-5---5-5----|-1---1-1----||
A|-3---3-3---3|-2---2-2----|------------|------------||   2 VECES
D|------------|------------|------------|------------||
G|------------|------------|------------|------------||

Mi Jesús....
B|-3---3-3----|------------|------------|------------||
E|---------1--|-3--3-3--0--|-1---1-1--1-|-3--------3-||
A|------------|------------|------------|------------||
D|------------|------------|------------|--------5---||
G|------------|------------|------------|------------||

SUBE 1 TONO  (C ---> D)
::SoLo D' GuItArrA::
B|-3---3-3-----|-----------|------------|-------------||
E|----------5--|-----------|-------5--5-|-3---3-3----3||
A|------------5|-4---4-4---|-2---2------|-------------||   2 VECES
D|-------------|-----------|------------|----------5--||
G|-------------|-----------|------------|-------------||


::CoRo::
B|-3---3-3-----|------------|-----------|-------------------|
E|------------5|------------|-------5---|-3-----3---3---3-3-|
A|----------5--|-4---4-4--4s|-2---2-----|-------------------|
D|-------------|------------|-----------|-----5-------5-----|
G|-------------|------------|-----------|-------------------|

Mi Jesús...

B|-------------|------------|-----------|----------------------|
E|-0---0-0--3--|---------2--|-3---3-3-3s|-5----------------5-5-|
A|-------------|-0---0-0----|-----------|----6h7---------7-----|
D|-------------|------------|-----------|---------7h9--5-------|
G|-------------|------------|-----------|----------------------|

::CoRo::

Mi Jesús...
B|-------------|------------|------------|------------------|
E|-0---0-0--3--|---------2--|-3---3-3--3-|-5--------5-3-2-0-|
A|-------------|-0---0-0----|------------|-------7----------|
D|-------------|------------|------------|-----7------------|
G|-------------|------------|------------|------------------|


::FiNaL::

B|-------------|------------|--------|------|-----------|---------||
E|--3---3-3---3|-2---------2|-3------|-2----|-0----9----|-10------||
A|-------------|------------|--------|------|-----------|---------||
D|-------------|------------|--------|------|-----------|---------||
G|-------------|------------|--------|------|-----------|---------||

Bueno, antes q' nada les mando un saludazazazo, no es necesario tocar
esta canción con un bajo d' 5 cuerdas, sino tienen un bajo asi, solo
tomen la 5ta. como referencia de notas más graves.

Un saludo a toda la gente del .Divi.Reden.
cualquier consulta, reclamo, solo escriban...
Aviso: Este fichero es trabajo propio de su transcriptor y representa su interpretación personal de la canción. El material contenido en esta página es para exclusivo uso privado, por lo que se prohibe su reproducción o retransmisión, así como su uso para fines comerciales.

Califica esta canción


Comentarios en Facebook