Enviado por:
anonimo

Música De Tv, Dragon Ball Gt - Dan Dan Kokoro Hikareteku

Dragon ball GT – Toma mi mano (requinto)
aki esta rola la afinacion es la normal weno ai nox vermox

Primera Parte

1.-3-3----3-5-3------------------------------------5-3-------------------
2.-----5-6-------6-5--5-5-----5-6-5---------------------3-5-6-5-3---5-6-3
3.------------------ 7-----5-7-------7-5-4-2-2-5-------5-----------5-----
4.----------------------------------------------------------------------
5.-----------------------------------------------------------------------
6.-----------------------------------------------------------------------

Segunda Parte

1.-3-3----3-5-3------------------------------------5-3---------------------
2.-----5-6-------6-5--5-5-----5-6-5---------------------3-5-6-5-3---3-1-0-1
3.-------------------7----5-7-------7-5-4-2-2-5--------5----------5--------
4.-------------------------------------------------------------------------
5.-------------------------------------------------------------------------
6.-------------------------------------------------------------------------
Aviso: Este fichero es trabajo propio de su transcriptor y representa su interpretación personal de la canción. El material contenido en esta página es para exclusivo uso privado, por lo que se prohibe su reproducción o retransmisión, así como su uso para fines comerciales.

Califica esta canción


Comentarios en Facebook