Enviado por:
anonimo

Sin Bandera, Si Tu No Vuelves

Imprimir
olash hermanos, les mando esto, sta rola sta de wevs... la neta
original del señor miguel bose, en la version de sin bandera,sta
completa y tiene los tonos correctos, espero y la disfruten. C
la kiero dedicar a una niña llamada

            "ITZEL GUADALUPE ORTIZ DELGADILLO"

"Y cada noche vendrá una estrella
a hacerme compañía,
que te cuente cómo estoy
y sepas lo que hay,
dime amor, amor, amor,
estoy aqui ¿no ves?
si no vuelves no habrá vida,
no sé lo que haré"


Y DICE ASI:



  C                  Bm
Si tú no vuelves, se secarán todos los mares,
    C                  Bm
y esperaré sin ti, tapiado al fondo de algún recuerdo.

      C                 Bm
Si tú no vuelves, mi voluntad se hará pequeña,
      C                Bm
me quedaré aquí, junto a mi perro espiando horizontes.

puente:  C     Bm       C       Bm


E---------------------------------------------------------
A------------------------------------------------------10-
D-----------------------------------------------------9--7
G----------------------------------------------------9----
B----10-8-7-8---10-8-7-8-----------10-8-7-8----10-8-7-----
e-7-7--------7-7----------10-12-7-7---------7-7-----------


     C                  Bm
Si tú no vuelves, no quedarán más que desiertos,
       C                 Bm
y escucharé por si, algún latido le queda a ésta tierra.

       C
Que era tan serena cuando me querías,
                  Bm
habia un perfume fresco que yo respiraba,
         C                                   Bm
era tan bonita, era así de grande y no tenía fin.


Coro:
  G
Y cada noche vendrá una estrella
             C
a hacerme compañía,
         G
que te cuente cómo estoy
               D
y sepas lo que hay,
      G
dime amor, amor, amor,
              C
estoy aqui ¿no ves?
        G
si no vuelves no habrá vida,
              D
no sé lo que haré.

puente:    G     C    G    D

E-----------------------------------------------------
A-----------------------------------------------------
D-----------------------------------------------------
G-7-7-7-7-7-7-----------------------------12----------
B--8-7-8-7-8---------12--12--12--12--12------10-------
e-------------10---10--12--10--12--10--10-------------


       C     Bm     C     Bm     D
E---------------------------------------------------------
A------------------------------------------------------10-
D-----------------------------------------------------9--7
G----------------------------------------------------9----
B----10-8-7-8---10-8-7-8-----------10-8-7-8----10-8-7-----
e-7-7--------7-7----------10-12-7-7---------7-7-----------



        C                    Bm
Si tú no vuelves, no habrá esperanza ni habrá nada,
     C                     Bm
caminaré sin ti, con mi tristeza bebiendo lluvia.


      C
Que era tan serena cuando me querías,
                  Bm
habia un perfume fresco que yo respiraba,
         C                                   Bm
era tan bonita, era así de grande y no tenía fin.


SE REPITE EL CORO:

Y cada noche vendra una estrella.................

despues se repite el solo hasta el final.
Aviso: Este fichero es trabajo propio de su transcriptor y representa su interpretación personal de la canción. El material contenido en esta página es para exclusivo uso privado, por lo que se prohibe su reproducción o retransmisión, así como su uso para fines comerciales.

Califica esta canción


Comentarios en Facebook