Enviado por:
anonimo

Sin Bandera, Si La Ves

Aquí les traigo una nueva aportación. Espero sea de su agrado
Esta canción en lo personal me enknta..

Va dedicada para ti princesA… VIPOMH



C         G       Am              Em         F
   Si la ves dile que, que me has visto mejorado
          Em            F           Dm         G
Y que hay alguien a mi lado que me tiene enamorado

         C             G         Am             Em
Que los días se han pasado y ni cuenta yo me he dado,
          F               C             Dm
Que no me ha quitado el sueño y que lo nuestro está
     G
olvidado.

               C           Sin bandera Rm7             Am      Sin bandera
Dile que yo estoy muy bien,[uhhhhuhhh] Que nunca he estado mejor,[uhhhhh]
                   G                F          G
Si piensa que tal vez me muero porque ya no esta que va,

               C         Sin bandera  Em7           Am       Sin bandera
Dile que al final de todo [uhhhh]     se lo voy a agradecer, [uhuuuuuuuu]

              F               Dm      G         C   Sin bandera
Aunque pensándolo bien mejor dile que ya no me ves. [ohoooouuu]


Sin bandera.

C         G       Am          Em         F
   Si la ves dile que ya no espero su llamada
      Em            F        Dm         G
Y que ya no me despierto en plena madrugada

Franco de Vita

       C          G           Am             Em
Y que ya no la recuerdo y que ya no me hace falta,
      F              C
Dile que ya estoy curado

[Franco/Sin bandera]
           Dm             G
Y que lo nuestro ya es pasado o ooO.



               C               Sin bandera       Em7             Am
Dile que yo estoy muy bien,[yo estoy muy bieeen] Que nunca he estado
       Sin bandera
mejor, [mejo o oor]

                   G                F          G
Si piensa que tal vez me muero porque ya no esta que va,
               C                         A
Dile que al final de todo se lo voy a agradece ee eeer,
              Dm              F        G
Aunque pensándolo bien mejor dile que ya..


       F          G                          C  Em7  Am
No me veees que me he perdido y que no voy a re gre  sar

------------------------Sin bandera----------------------------
           F            G                     C         A
Y dile también que aunque me llame no contestaré si la ve e ees


Franco de Vita                          Sin bandera
                  D
Si dile que yo estoy muy bien, [aunque yo se muy bien que no],

Franco de Vita                 Sin bandera
              Bm
Que nunca estado mejor, [miente un poco por favor ],
                   A               G           A
Si piensa que tal vez me muero porque ya no esta que va.
               D
Dile que al final de todo [no sigas mintiendote]
                  Bm             Em                 G       A         D
se lo voy a agradecer aunque pensándolo bien mejor dile que ya no me ves

Sin bandera
               D
dile que yo estoy muy bien, [aunque yo se muy bien que no],
              Bm
Que nunca estado mejor, [miente un poco por favor ],
                   A               G           A
Si piensa que tal vez me muero porque ya no esta que va.

[a 2 voces]
               D
Dile que al final de todo [no sigas mintiendote]
                       Franco de vita
                  Bm             Em                 G       A         A#
se lo voy a agradecer aunque pensándolo bien mejor dile que ya no me veees

Sin bandera
    C#            A#        C#           D
 Ahhhhhhh     ohhhhhhh   eeeeehhhh



           C
E------ ------ ------
A------ ------ ---3--
D------ --2--- ------
G------ ------ ------
B--1--- ------ ------
e------ ------ ------
          Em7
E------ ------ ------
A------ ---2-- ------
D------ ------ ------
G------ ------ ------
B------ ------ ------
e------ ------ ------
          F
E--1--- ------ ------
A--1--- ------ ---3--
D--1--- ------ ---3--
G--1--- ---2-- ------
B--1--- ------ ------
e--1--- ------ ------
          Dn
E------ ------ ------
A------ ------ ------
D------ ------ ------
G------ ---2-- ------
B------ ------ ---3--
e--1--- ------ ------
          Bm
E--2--- ------ ------
A--2--- ------ ------
D--2--- ------ ---4--
G--2--- ------ ---4--
B--2--- ---3-- ------
e--2--- ------ ------
          A
E------ ------ ------
A------ ------ ------
D------ ---2-- ------
G------ ---2-- ------
B------ ---2-- ------
e------ ------ ------

          Am
E------ ------ ------
A------ ------ ------
D------ ---2-- ------
G------ ---2-- ------
B--1--- ------ ------
e------ ------ ------

          D
E------ ------ ------
A------ ------ ------
D------ ------ ------
G------ ---2-- ------
B------ ------ ---3--
e------ ---2-- ------

          A#
E--1--- ------ ------
A--1--- ------ ------
D--1--- ------ ---3--
G--1--- ------ ---3--
B--1--- ------ ---3--
e--1--- ------ ------


Espero k les haya gustado mi trabajo..
Cualquier duda sugerencia o comentario por favor escríbanme. Salu2!!
Aviso: Este fichero es trabajo propio de su transcriptor y representa su interpretación personal de la canción. El material contenido en esta página es para exclusivo uso privado, por lo que se prohibe su reproducción o retransmisión, así como su uso para fines comerciales.

Califica esta canción


Comentarios en Facebook