Enviado por:
anonimo

Enanitos Verdes, Elena

Imprimir
Otra excelente cancion de los enanitos, esta va para
las chavas que de verdad saben querer (debe haber alguna por ahi)
Saludos a todos los fans de Enanitos (no puedo esperar al
concierto).

intro:
   Cm    A#     F                 Cm    A#     F
e|--------------------1~-----------------------------1~-
B|-4---4-3------1---1----------1~-4---4-3---3--1--------
G|---5-----3-0~---2--------(2)------5-----3------2------
D|----------------------(3)------------------------3----
A|------------------------------------------------------
E|------------------------------------------------------

riff1
             A#
Un dia como hoy
riff3
                    Dm     riff2
se fue quedando en soledad
        Cm              D#
le prometio despues volver
        F
por la patria iba a luchar

                A#
Nunca le dijo adios.
                 Dm     riff2
Decir "hasta la vuelta" era mejor,
           Cm         D#
y asi, fingiendo sonreir
         F
quedo mirandolo partir.

se repite intro con alguna variante por ahi(no creo que batallen)

riff1
               A#
Elena le escribio.
riff3
                 Dm     riff2
Algunas cartas contesto,
         Cm         D#
que de leer nunca dejo.
            F
Cartas de guerra, cartas de amor

                   A#
Al frente fue a luchar,
                  Dm     riff2
a aquellas islas conquistar,
           Cm          D#
cuando la bala lo alcanzo
                 F
el angel de la muerte se lo llevo.

  A#       F          Gm         F       D#   Cm
Y ella no deja de sentir que un dia volvera...
         F
solo queda esperar.
     A#       F         Gm
La guerra nunca la termino,
    F           Gdim               F
la tumba del dolor       siempre abierta esta
      riff3
           A#
en su corazon.

esto sigue inmediatamente despues de terminar el riff3
   A#                  C                    A#                C
e|------------------------------------------------------------3----3---
B|-3-----3-----1h3-1---5---5-5-----5/6/5----6---6-6---5h6-6------------
G|---3-----3---------3---------5-3-------5----5-----5-------5---5----5-
D|-----3-----3-----------5---------------------------------------------
A|---------------------------------------------------------------------
E|---------------------------------------------------------------------

riff1
               A#
Desnuda la ciudad,
                   Dm     riff2
buscando entre las calles va.
          Cm             D#
pasan los años y ella esta
            F
besando el viento mirando el mar.

                A#
No quiso preguntar
                  Dm     (e|-3-1- B|-3-) casi no se escucha
cuando volvieron los demas.
           Cm              D#
y si algun barco llega del sur
            F
su rostro brilla lleno de luz.

  A#      F          Gm         F       D#   Cm
Elena no deja de sentir que un dia volvera...
         F
solo queda esperar.
     A#       F         Gm
La guerra nunca la termino,
    F           Gdim               F
la tumba del dolor       siempre abierta esta
      riff3
           A#
en su corazon.

   A#                  C                    A#                C
e|------------------------------------------------------------3----3---
B|-3-----3-----1h3-1---5---5-5-----5/6/5----6---6-6---5h6-6------------
G|---3-----3---------3---------5-3-------5----5-----5-------5---5----5-
D|-----3-----3-----------5---------------------------------------------
A|---------------------------------------------------------------------
E|---------------------------------------------------------------------

y termina haciendo el riff3

    riff1:               riff2:          riff3:

e|-----------------  e|-1h3p1------  e|-----------------
B|---1h3-1---1h3-1-  B|-------3----  B|---1h3-1---1h3-1-
G|-3-------3-------  G|---------2~-  G|---------3-------
D|-----------------  D|------------  D|-3---------------
A|-----------------  A|------------
E|-----------------  E|------------

   D# (en el 3er traste)  Gdim
e|-3-                    e|-3-
B|-4-                    B|-5-
G|-3-                    G|-3-
D|-5-                    D|-5-
A|-6-                    A|-4-
E|-3-                    E|-3-


los C que encuentren haganlos con cejilla en el tercer traste.
las notas entre () en el intro son notas fantasma(casi no se
escuchan).
Aviso: Este fichero es trabajo propio de su transcriptor y representa su interpretación personal de la canción. El material contenido en esta página es para exclusivo uso privado, por lo que se prohibe su reproducción o retransmisión, así como su uso para fines comerciales.

Califica esta canción


Comentarios en Facebook