Enviado por:
anonimo

No Te Va Gustar, Angel Con Campera

Imprimir
Intro: F Am A7 Dm x2
       A# Gm A#


E----------------|-------5-5-7/9-9-10----|
B--6----6-5-5-6--|--6--------------10----|
G--5-3/5--5-6-7--|--5-3/5----7/9-9-10----|
D----------------|-----------------------|
A----------------|-----------------------|
E----------------|-----------------------|

E-------------------------------------------------------|
B-------------------------------------------------------|
G---------------------------------------10--------------|
D--10/12-10---------------------------------------------|
A-----------10-10/12-10-8----8-10--10/13---13-12-10-8---|
E-------------------------10----------------------------|

F            Am       A7     Dm
Que se va la vida a veces siento
    F           Am    A7     Dm
Que río menos cuando más lo intento
    F              Am    A7     Dm
No sé si estoy en el lugar correcto
     Gm                          C
Si pienso en esto, ya no me arrepiento
A#                 Dm
La piel se cambia sola
A#                    Dm
No espera a nadie ni a nada
A#                 Gm
La decisión equivocada
A#                     F
Puede transformarse en ley

ESTRIBILLO
       Am        G
Y es todo por ahora
F               Am        G
Ya no tengo tanto que decir
Dm               Am        G
Espero me disculpes la demora
F               Am        G
Prefiero llegar tarde y no mentir

INTRO..

F              Am       A7           Dm
Un día me encontré a la vuelta de mi casa
    F              Am    A7      Dm
De pelo oscuro un ángel con campera
    F          Am    A7       Dm
Le dije te espere la vida entera
Gm                 C
Y no me creyó casi nada
A#              Dm
Que sería de nosotros
A#                          Dm
Si de afuera ya no entrara nada
A#                   Gm
Sin la duda sin la espera
  A#                     F
Dejando la puerta cerrada


ESTRIBILLO
       Am        G
Y es todo por ahora
F               Am        G
Ya no tengo tanto que decir
Dm            Am           G
Espero me disculpes la demora
   F            Am            G
Prefiero llegar tarde y no mentir

Y no mentir

Dm          Am               G
oh oh oh oh oohh oh oh oh oh ooohh
       Dm                    Am      G
No tengo nada nada nada nada nada
      Dm   Am      G
disculpame tanta demora
Dm                 Am        G
ya llego tarde y no voy a mentir..


Exitos ;)
Aviso: Este fichero es trabajo propio de su transcriptor y representa su interpretación personal de la canción. El material contenido en esta página es para exclusivo uso privado, por lo que se prohibe su reproducción o retransmisión, así como su uso para fines comerciales.

Califica esta canción


Comentarios en Facebook