Enviado por:
wil-10

Marcos Barrientos, Solo A Ti

Solo a ti.  Marcos Barrientos      CREE  TODO  ES POSIBLE


Intro y estructura del primer coro

e---------------------------------------------------0----
b------3---3---------3---3---------2-0-2-0------0--------
G----4---4--4-----2----2---2-----2------------1---1---1--
D--4------------4--------------2------------2------------
A--------------------------------------------------------
E--------------------------------------------------------

notas [segunda guitarra ]

Bm     D   A       E
 Poderoso santo dios
Bm        D         A           E
Reinas en majestad glorioso rey x2
E       Bm           D       A 
Quiero adorar quiero adorarte x2
F#m       E   D        F#m E    D
Solo a ti Jesús solo a ti mi dios x2

Solo
 .-
Se usan un delay + overdrive + distor[muy leve].


e---12-12-12-------------------------------------------------
b------------12-12-12--14-14-14-14--15-14-15-14-15------------
G------------------------------------------------------------
D------------------------------------------------------------
A------------------------------------------------------------
E------------------------------------------------------------

e----------------------------------------12-14-16-17-19-19---
b--17-15-12--~14-^14---14-12-10-~12-^12-----------------------
G------------------------------------------------------------
D------------------------------------------------------------
A------------------------------------------------------------
E------------------------------------------------------------

e--^19-^19--17-19-----17---^19-^19--17-19-----17-16-17-19-19-
b----------------19----------------------19------------------
G------------------------------------------------------------
D------------------------------------------------------------
A------------------------------------------------------------
E------------------------------------------------------------

e--16-14-^12--------
b-------------------
G---------------
D-------------- 
A------------------- 
E-------------------
Dios les bendiga y que esta hermosa alabanza les sirva como guía

ATT: WILFRIDO.CS
Aviso: Este fichero es trabajo propio de su transcriptor y representa su interpretación personal de la canción. El material contenido en esta página es para exclusivo uso privado, por lo que se prohibe su reproducción o retransmisión, así como su uso para fines comerciales.

Califica esta canción


Comentarios en Facebook