Enviado por:
Javierzito

Marcos Barrientos, Que Los Cielos Se Abran Hoy

Imprimir
Mi primera Colaboracino espero les guste.!
Bendiciones!


Intro X4
//
e----10-10-10-12-12-12-13-13-13-10-10-10-12-12-13-13-----------
B----10-10-10-10-10-10-10-10-10-10-10-10-10-10-10-10-----------
G--------------------------------------------------------------
D--------------------------------------------------------------
A--------------------------------------------------------------
E--------------------------------------------------------------

e-----------------------------12-12-12-12-12-12-12-12----------
B----11-11-11-11-11-11-11-11--11-11-11-11-11-11-11-11----------
G----10-10-10-10-10-10-10-10-----------------------------------
D--------------------------------------------------------------
A--------------------------------------------------------------
E--------------------------------------------------------------

//
XXXXXXXXXXXXXXXXXXXXXXXXXXXXXXXXXXXXXXXXXXXXXXXXXXXXXXXXXXXX
------------------------------------------------------------>
XXXXXXXXXXXXXXXXXXXXXXXXXXXXXXXXXXXXXXXXXXXXXXXXXXXXXXXXXXXX
//
e---------------------------------------------------
B---------------------------------------------------
G----10-10--10--7-7-9-10--10--14-14-12-12-10-10//---   Se repite
D----10-10--10--7-7-9-10--10--14-14-12-12-10-10//---   2 veces
A---------------------------------------------------
E---------------------------------------------------


Solo de Guitarra
e--------------------10(4)-12(3)-10(3)-----10(3)------------------------
B-8(13)--10-10s12(12)-----------------12(3)-----12h13p12-10-8---8-------
G-------------------------------------------------------------9---7-7h9-
D-----------------------------------------------------------------------
A-----------------------------------------------------------------------
E-----------------------------------------------------------------------

e----14p15p14-12----10s12-12*--14-14h15*-17--17-17-17-15-15-15--
B----------------12---------------------------------------------
G---------------------------------------------------------------
D---------------------------------------------------------------
A---------------------------------------------------------------
E---------------------------------------------------------------

e---14-14-14----14--------------------------------------------------
B------------15----15--13-13-13-12-12-12----------------------------
G----------------------------------------12-12-12-------------------
D-------------------------------------------------12h14-14-12h14-14-
A-------------------------------------------------------------------
E-------------------------------------------------------------------

Outro(guitarra)
e--------------------------------------------------------------------
B--------------------------------------------------------------------
G--9-9-9-9-9-9-9-9---11-11-11-11-11-11-11-11-12-12-12-12-12-12-12-12-
D--9-9-9-9-9-9-9-9---9--9--9--9--9--9--9--9--9--9--9--9--9--9--9--9--
A--------------------------------------------------------------------
E--------------------------------------------------------------------

e-----------------------------------------------
B-----------------------------------------------
G--5-5-5-5-5-5-5-5-5-5-5-5-5-5-5-5-----9--------
D--5-5-5-5-5-5-5-5-5-5-5-5-5-5-5-5-----9--------
A-----------------------------------------------
E-----------------------------------------------
Aviso: Este fichero es trabajo propio de su transcriptor y representa su interpretación personal de la canción. El material contenido en esta página es para exclusivo uso privado, por lo que se prohibe su reproducción o retransmisión, así como su uso para fines comerciales.

Califica esta canción


Comentarios en Facebook