Los Manseros Santiagueños, Chacarera Para Mi Vuelta

Imprimir
Intro: Lam - Mi7

e|----5-------------/----/------------------------|
b|--5-5-5-3-1-0-3-1-/----/------------------------|
g|--5---5-4-2-1-4-2-/-X2-/------------------------|
d|------------------/----/--------0-0h2-0---------|
a|------------------/----/--0-2-3---------3-2-0---|
E|------------------/----/------------------------|


LAm
Dejé mi tierra cantora
   FA
por conocer otros pagos
   SOL
voy andando los caminos
        MI7              LAm
pero mi alma está en Santiago.

Desde entonces vivo solo
por las calles de la vida
callada sombre que pasa
guitarra llena de herida.

LAm
Guitarra llena de heridas
  FA*
mate amargo mal cebado
  SOL*
tu llanto dentro del pecho
  MI7*                LAm
me anda llorando, llorando.

Estribillo:
LAm
Cuando yo pegue la vuelta
FA
no se ni como ni cuando
 SOL
tierra madre he de contarte
     MI7              LAm
lo mucho que te he añorado.


De tu distancia a la mía
hay una cruz de madera
una nostalgia de canto
y un bailar de chacarera.


Un bailar de chacareras
bajo este cielo estrellado
donde comulgan los bombos
con los vientos y el sachayoj.


Y al dormir baja la noche
sobre la espuma del río
en la sala de un ochogos
pa' no morirse de frío.

Estribillo:
Cuando yo pegue la vuelta
no se ni como ni cuando
tierra madre he de contarte
lo mucho que te he añorado.


      FA*   SOL*  MI7*
e|-----0-----0-----0-----|
b|-----0-----0-----0-----|
g|-----2-----4-----2-----|
d|-----3-----5-----0-----|
a|-----3-----5-----2-----|
E|-----1-----3-----3-----|
Aviso: Este fichero es trabajo propio de su transcriptor y representa su interpretación personal de la canción. El material contenido en esta página es para exclusivo uso privado, por lo que se prohibe su reproducción o retransmisión, así como su uso para fines comerciales.

Califica esta canción


Comentarios en Facebook