Enviado por:
ONEproblem

Reik, Creo En Tí

RIFF
1.-----------------------------------------------
2.-------5--------4---------------5--------4-----
3.----------4------------------4-----4-----------
4.----6--------6------------7-----------7--------
5.-7---------------------------------------------
6.-----------------------------------------------

1.--------------------------------------------------
2.-------5--------5---------------5--------------5--
3.----4-----4------------------4-----------4----4---
4.-4-----------4------------6-----------4------6----
5.-----------------------------------6--------7-----
6.--------------------------------------------------


B-F#m-A-E
Estrofa:
B                     F#m
  ya no importa cada noche que espere
A                   E
  Cada calle o laberinto que cruce
B                     F#m
  Por qué el cielo ha conspirado a mi favor
A                   E
  Y a un segundo de rendirme te encontré
Pre coro:
C#m        A1      B1       B7
Piel con piel mi corazón se me desarma
C#m        A1      B1         B7  -C#2-D#2
Me haces bien enciendes luces en mi alma
Coro:
E1
Creo en ti
      B/D#
Y en este amor
       C#m                    B
Que me vuelve indestructible
      A         B
Que detuvo mi caída libre
E1
Creo en ti
 B
  B/D#
Y mi dolor
Cdim7        D#dim7      C#m
Se quedó a kilómetros a tras
C#m/B  F#/Bb
Mis fantasmas hoy
    A    B       RIF
Por fin están en paz.

B-F#m-A-E
Estrofa:
B                     F#m
  El pasado es un mal sueño que acabo
   A                     E
  Un incendio que en tus brazos se apago
B                     F#m
  Cuando estaba medio pasó de caer
A                      E
  Mi silencio si encontraron con tu voz.
Pre coro:
C#m        A1      B1   B7
Te segui y rescribiste mi futuro
C#m   A1    B1     B7  -C#2-D#2
 Es aquí mi único lugar seguro

Coro:
E1
Creo en ti
      B/D#
Y en este amor
       C#m                    B
Que me vuelve indestructible
      A         B
Que detuvo mi caída libre
E1
Creo en ti
 B
B/D#
Y mi dolor
Cdim7       D#dim7      C#m
Se quedó a kilómetros a tras
C#m/B  F#/Bb
Mis fantasmas hoy
    A   B       RIF
Por fin están en paz.
Aviso: Este fichero es trabajo propio de su transcriptor y representa su interpretación personal de la canción. El material contenido en esta página es para exclusivo uso privado, por lo que se prohibe su reproducción o retransmisión, así como su uso para fines comerciales.
comentario del colaborador: ESPERO QUE LES GUSTE LA CANCION :) http://lacuerda.net/

Califica esta canción


Comentarios en Facebook