Enviado por:
maunitox12

Canciones Populares, Carnavalito

Imprimir
esta cancion es del norte de chile muy buena y facil bueno a qui les va:

e|----5-5-5-5--7-8-7-5---------5-----------------------|
B|--5------------------8-8-8-8---8---------------------|
G|-----------------------------------------------------| X2
D|-----------------------------------------------------|
A|-----------------------------------------------------|
E|-----------------------------------------------------|



e|-----------------------------------------------------|
B|--5-5-5---8-5-5-5---8-5-5-5--------------------------|
G|--------7---------7---------7-5----------------------|
D|--------------------------------7--------------------|
A|-----------------------------------------------------|
E|-----------------------------------------------------|



e|-----------------------------------------------------|
B|--5-5-5---8-5-5-5---8-5-5-5--------------------------|
G|--------7---------7---------7-5---5---5--------------|
D|--------------------------------7---7---7-7-7--------|
A|-----------------------------------------------------|
E|-----------------------------------------------------|



e|--5-5-5-5--7-8-7-5---------5-------------------------|
B|--------------------8-8-8-8---8----------------------|
G|-----------------------------------------------------| X2
D|-----------------------------------------------------|
A|-----------------------------------------------------|
E|-----------------------------------------------------|



e|-----------------------------------------------------|
B|--5-5-5---8-5-5-5---8-5-5-5--------------------------|
G|--------7---------7---------7-5----------------------|
D|--------------------------------7--------------------|
A|-----------------------------------------------------|
E|-----------------------------------------------------|



e|-----------------------------------------------------|
B|--5-5-5---8-5-5-5---8-5-5-5--------------------------|
G|--------7---------7---------7-5---5---5--------------|
D|--------------------------------7---7---7-7-7--------|
A|-----------------------------------------------------|
E|-----------------------------------------------------|


bueno eso fue todo amigos es mi primer tab y la saque al oido he estado ollendo las otras pero no suenan bien adios
Aviso: Este fichero es trabajo propio de su transcriptor y representa su interpretación personal de la canción. El material contenido en esta página es para exclusivo uso privado, por lo que se prohibe su reproducción o retransmisión, así como su uso para fines comerciales.
comentario del colaborador: comenten porfa es mi primer tab

Califica esta canción


Comentarios en Facebook