Enviado por:
luksACDC07

No Te Va Gustar, Chau

Solo:
E|--10-9-------------------------------12-----------------|
B|-------12-10-8---10b12r10---12/14-14---12----10h12-10~--|
G|------------------------------------------11------------|
D|--------------------------------------------------------|
A|--------------------------------------------------------|
E|--------------------------------------------------------|

E|-------------------------12-14-12-15-15p14-14-14p12-12--|
B|--15-14-15-14-12---12-15--------------------------------|
G|--------------------------------------------------------|
D|--------------------------------------------------------|
A|--------------------------------------------------------|
E|--------------------------------------------------------|

E|--15-14-12----------------------------------------------|
B|-----------15-14-15-14~-12----12-14b15r14p12------------|
G|---------------------------14---------------------------|
D|--------------------------------------------------------|
A|--------------------------------------------------------|
E|--------------------------------------------------------|

E|--------------17b18~---17-21b22r21-19---17-17-17h19-----|
B|--12-15b17r15-------------------------------------------|
G|--------------------------------------------------------|
D|--------------------------------------------------------|
A|--------------------------------------------------------|
E|--------------------------------------------------------|

aca un poquito mas rapido...
Solo/Outro:
E|--10-9-------------------------------12-----------------|
B|-------12-10-8---10b12r10---12/14-14---12----10h12-10~--|
G|------------------------------------------11------------|
D|--------------------------------------------------------|
A|--------------------------------------------------------|
E|--------------------------------------------------------|

E|-------------------------12-14-12-15-15p14-14-14p12-12--|
B|--15-14-15-14-12---12-15--------------------------------|
G|--------------------------------------------------------|
D|--------------------------------------------------------|
A|--------------------------------------------------------|
E|--------------------------------------------------------|

E|--15-14-12----------------------------------------------|
B|-----------15-14-15-14~-12----12-14b15r14p12------------|
G|---------------------------14---------------------------|
D|--------------------------------------------------------|
A|--------------------------------------------------------|
E|--------------------------------------------------------|

E|--------------17b18~---17-21b22r21-19---17-17-17h19-----|
B|--12-15b17r15-------------------------------------------|
G|--------------------------------------------------------|
D|--------------------------------------------------------|
A|--------------------------------------------------------|
E|--------------------------------------------------------|

De acá en adelante va mas rapido...
E|-15p14-14-14p12--------------12-14-12-15-14-12-----------------|
B|----------------15-12~--12-15------------------15-14-12-14-15--|
G|---------------------------------------------------------------|
D|---------------------------------------------------------------|
A|---------------------------------------------------------------|
E|---------------------------------------------------------------|

E|-----------------------------------------------------------------|
B|-12-14-12-10~--12h10----10--------------------10-----------------|
G|---------------------11----119-7--7-7h9-9/11----119-7----------|
D|-----------------------------------------------------------------|
A|-----------------------------------------------------------------|
E|-----------------------------------------------------------------|

E|------------------------------------|
B|------------------------------------|
G|-7h9p76---6/7----------------------|
D|---------9-----9~-------------------|
A|------------------------------------|
E|------------------------------------|
Aviso: Este fichero es trabajo propio de su transcriptor y representa su interpretación personal de la canción. El material contenido en esta página es para exclusivo uso privado, por lo que se prohibe su reproducción o retransmisión, así como su uso para fines comerciales.

Califica esta canción


Comentarios en Facebook