Enviado por:
gersonp

Danilo Montero, La Unica Razon

INTRO: Bm-G-D-A
e]|----------------------x-|----------------------x-|
B]|----------------------x-|----------------------x-|
G]|-----7----10----7-----x-|-----7----10----7-----x-|
D]|--7s9-9-12--12-9-9-7--5-|--7s9-9-12--12-9-9-7--5-|
A]|-5--------------------5-|-5--------------------5-|
E]|----------------------3-|----------------------3-|

VERSO:
   Bm                   G
La única Razón de mi adoración
  D             A 
eres tú mi Jesús
   Bm             G
el único motivo para vivir
 D              A [SEGUNDA VUELTA F#]
eres tú mi Señor

      Bm           G
Mi única verdad esta en ti
         D               A 
eres mi luz y mi salvación
      Bm            G
mi único amor eres Tu Señor
        D             F#
y por siempre te alabaré


CORO:
         Bm [C#m] G [A]
Tu eres todo poderoso
      D [E]          A [B]
eres grande y majestuoso
       Bm [C#m]    G [A]
eres fuerte E invencible
          D [E]       A [B]
y no hay nadie como tú

SOLO:
e]|-------------5-----5--------------10-10s12-12s14-12--|
B]|---5-7---5-7---8-7------5-7---5-7--------------------|
G]|-7-----7--------------7-----7------------------------|
D]|-----------------------------------------------------|
A]|-----------------------------------------------------|
E]|-----------------------------------------------------|
Aviso: Este fichero es trabajo propio de su transcriptor y representa su interpretación personal de la canción. El material contenido en esta página es para exclusivo uso privado, por lo que se prohibe su reproducción o retransmisión, así como su uso para fines comerciales.
comentario del colaborador: EN EL CORO APARECEN OTROS ACORDES EN PARENTESIS (CON UN TONO MAS) ESOS SOLO VAN DESPUES DEL SOLO QUE HACE LA GUITARRA ELECTRICA... AL FINAL LA GUITARRA VUELVE A HACER LA INTRODUCCION QUE TAMBIEN PUEDEN HACERLA CON UN TONO MAS ASI LA HAGO YO Y SALE FRESA... BUENO ESOES TODO BENDICIONES!!!

Califica esta canción


Comentarios en Facebook