Enviado por:
Theothers

Ciro Y Los Persas, Antes Y Despues

Esta seria una version para principiantes,es muy facil,es solo encontrar el ritmo 
y te saldra :D [esta seria la version de la 3er guitarra]
Aclaro: NO es la version original,y si la tocan a tiempo y bien,sonara bastante parecido

Intro: E


E
Antes, hace ya tiempo
            D  A         E
yo te invitaba a cazar un ciervo.
E
Después, te acompañaba
               A      E
a buscar yuyos, para tu cama.
E
Antes, en una emboscada
E
te protegía y perdía un ojo, por una espada.
E
Después, vos me invitabas,
a ver la luna, la misma luna, en tu ventana.
E[Muchas veces hasta que empieze el riff]
Durante el riff: E                               D   A   E
1------------------------------------------------------------
2--0-------0-----------0-2-3-2-0-----------------------------
3----2-1-2----2-1---1-2---------2-1-----2-2-1----------------
4--------------------------------------------4-2-0--2--------
5-----------------------------------------------------4------
6-------------------------------------------------------2--0-       

E
Antes, hace ya tiempo
D               A             E                
conquistadores, nos imponían, su dios del miedo
E                           A 
Después, vos me abrazabas, y me lamías en
            E
cada herida, y en cada llaga.
E
Antes, cadena llevaba, y en un mercado
sobre los muelles, vos me comprabas.
E[muchas veces hasta que empieze a cantar]
A                  Em                
Que placer verte otra vez
              D
nos decimos sin hablar
E
hoy todo vuelve a empezar
y será lo que ya fue...
A                Em
Que placer verte otra vez
              D
nos decimos sin hablar
E
hoy todo vuelve a empezar
y será lo que ya fue.
   E                                             D    A    E
1------------------------------------------------------------
2--0-------0-----------0-2-3-2-0-----------------------------
3----2-1-2----2-1---1-2---------2-1-----2-2-1----------------
4--------------------------------------------4-2-0--2--------
5-----------------------------------------------------4------
6-------------------------------------------------------2--0-
                      E A D
Después, me regalabas
               
ese retrato, que bajo tierra, aún me acompaña.
E [Muchas veces hasta que cante]

A                    Em
Que placer verte otra vez
                 D
nos decimos sin hablar
         E
hoy todo vuelve a empezar
y será lo que ya fue.
E   A   D    E   A   D   E
                   D
Nuestro amor renacerá
                   A 
con idéntica pasión
                   E[haciendo un arriba abajo muy rapido]
almas y transmutación

nuevos cuerpos? ¿quien serás?
E[antes del riff y todo el riff]

Fin :3
Aviso: Este fichero es trabajo propio de su transcriptor y representa su interpretación personal de la canción. El material contenido en esta página es para exclusivo uso privado, por lo que se prohibe su reproducción o retransmisión, así como su uso para fines comerciales.

Califica esta canción


Comentarios en Facebook