Enviado por:
vilboy403

Enanitos Verdes, Por El Resto

Hola amigos que tal hoy les traigo una rolita buena para que se le aprendan, los acordes son los originales, junto con los riffs que les traigo, las otras versiones son muy malas, bueno ustedes juzgaran, aqui vamos....



INTRO..RIFF 1.. 

E|----8-------|  AQUI FORMAREMOS EL ACORDE DE LA MENOR,
B|----10------|
G|----9-------|
D|----10------|
A|------------|
E|------------|

El rasgueo es muy sencillo es uno hacia abajo,uno hacia arriba, luego uno hacia abajo, y otro hacia arriba pero apagando, siguiendo esta secuencia lo practicamos lento y cuando lo
dominemos, ya metemos velocidad..

RIFF 2... 1ERa PARTE

E-||------------------------------------------------------
B-||-------------5--------------5-------------------------
G-||----3s5--7---------3s5--7-----------------------------
D-||-----------------------------------5---7--------------
A-||------------------------------------------------------
E-||---------------------------------------------0--7--5--
 
2DA PARTE

E-||------------------------------------------------------
B-||-------------5--------------5-------------------------
G-||----3s5--7---------3s5--7-----------------------------
D-||-----------------------------------8---10-------------
A-||------------------------------------------------------
E-||---------------------------------------------0--7--5--


Nunca necesitaste
       Lam
a nadie para vivir
              FA
ni siquiera te fijaste
     Rem7
que había a tu alrededor
                    Lam riff 1
desesperado mirabas
Lam
las paredes de tu habitación
                        FA
y gritaste muy fuerte
       Rem7
pero nadie te conoció
                 MI
Y ahora tendrás que seguir
           FA
cargando tu cruz
    Rem
   por el resto de tus días
SOL         Lam
por el resto de tus días
        Rem          FA
por el resto de tus días
Lam
por el resto de tus días
        Rem           FA

SE REPITEN LOS 2 RIFFS

Creías que la balanza
Lam
siempre estaba a tu favor
                     FA
y lo mejor de todo
      Rem7
era que sólo lo creías vos
                       Lam riff 1
sólo si diste algo,
Lam
algo podrás recibir
                FA
y el amor que esperas
     Rem7
sólo depende de ti
                MI
y ahora tendrás que seguir
          FA
cargando tu cruz
   Rem
   por el resto de tus días
SOL         Lam
por el resto de tus días
        Rem           FA
por el resto de tus días
Lam
por el resto de tus días.
        Rem           FA

Pues eso es todo, espero les agrade, 
nada mas me falto el solo...


Rem7

E|----1-------|
B|----1-------|
G|----2-------|
D|------------|
A|------------|
E|------------|
Aviso: Este fichero es trabajo propio de su transcriptor y representa su interpretación personal de la canción. El material contenido en esta página es para exclusivo uso privado, por lo que se prohibe su reproducción o retransmisión, así como su uso para fines comerciales.

Califica esta canción


Comentarios en Facebook