Enviado por:
kenjibu

Ricardo Arjona, Historia De Taxi

Hola
Hace mucho que no envio transcriciones pero al ver esas versiones
de esta cancion me senti que debia hacerlo..
Esta con las notas de la cancion original y un par de arpegios.
INTRO
00:08                                                         00:14
Rem         Do                  Rem          Sol
------------3--------------------------------------------------------
-------5-6--5--------------------------5-6---6/8------6/8-8----8-----
-----7------5--5-------7-------------7-------7/9-10-7-7/9-9-10-------
---7--------5---5-------7----------7---------------------------------
-5----------3-----3/5----5-------5-----------------------------------
---------------------------------------------------------------------
           ^^
        (rasgueo)

00:15                                                         00:20
Rem         Do                  Rem          Sol
------------3--------------------------------------------------------
-------5-6--5--------------------------5-6---6/8------6/8-8----8-----
-----7------5--5-------7-------------7-------7/9-10-7-7/9-9-10-------
---7--------5---5-------7----------7---------------------------------
-5----------3-----3/5----5-------5-----------------------------------
---------------------------------------------------------------------
           ^^
        (rasgueo)

Ahora entra el piano y los demás instrumentos. La guitarra hará lo
mismo excepto al final del piano.

00:21                                                         00:27
Rem         Do                  Rem          Sol
------------3--------------------------------------------------------
-------5-6--5--------------------------5-6---6/8------6/8-8----8-----
-----7------5--5-------7-------------7-------7/9-10-7-7/9-9-10-------
---7--------5---5-------7----------7---------------------------------
-5----------3-----3/5----5-------5-----------------------------------
---------------------------------------------------------------------

00:28                                         00:33
Rem         Do                  Rem          Sol
------------3------------------------------------------
-------5-6--5--------------------------5-6---6/8-------
-----7------5--5-------7-------------7-------7/9-------
---7--------5---5-------7----------7-------------------
-5----------3-----3/5----5-------5---------------------
-------------------------------------------------------

Ahora las estrofas
En la cancion suenan 2 guitarras (G1 y G2)

* G1 hace un riff con palm mute durante todas las estrofas mientras
  que G2 hace los arpegios. Escuchen detenidamente la cancion y
  descubriran el riff con palm mute al que me refiero

riff que hace G1
 (palm mute)
----------------
----------------
---5---5---5-7--
-5---5---5------
----------------
----------------

ESTROFAS

00:39
   Rem                                    Do
   Eran las diez de la noche piloteaba mi nave
   ------------------------------------------------------------------
   ------------------------------------------------------------------
G1 -----5-----5-----5---7-----------------------5-----5-----5--7-----
   --5-----5-----5---------------------------5-----5-----5-----------
   ------------------------------------------------------------------
   ------------------------------------------------------------------

   ------------------------------------------------------------------
   ------------------------------------------------------------------
G2 --------------------------------------------5---------------------
   ----------------------------------------------5-5-----------------
   ------------------------------------------------------------------
   ------------------------------------------------------------------

00:44
                       Sib
   era mi taxi un volkswagen
   ------------------------------------------------------------------
   ------------------------------------------------------------------
G1 -------------------------5-----5-----5--7-------------------------
   ----------------------5-----5-----5-------------------------------
   ------------------------------------------------------------------
   ------------------------------------------------------------------

   ----------------------5-------------------------------------------
   ------------------------6-----------------------------------------
G2 --------------------------5---------------------------------------
   ------------------------------------------------------------------
   ------------------------------------------------------------------
   ------------------------------------------------------------------

00:47
                    Rem
   del año sesenta y ocho
   ------------------------------------------------------------------
   ------------------------------------------------------------------
G1 -------------------------5-----5-----5--7-------------------------
   ----------------------5-----5-----5-------------------------------
   ------------------------------------------------------------------
   ------------------------------------------------------------------

   ------------------------------------------------------------------
   ------------------------5---6-------------------------------------
G2 ----------------------5---5---------------------------------------
   --------------------------------5/7-7-5-5-------------------------
   ------------------------------------------------------------------
   ------------------------------------------------------------------

Bueno, de aki en adelante ya no repetire G1, pero ya saben estara en
el resto de la cancion (solo en las estrofas)

00:52
   Rem                                    Do
   Era un dia de esos malos donde no hubo pasaje
   ------------------------------------------------------------------
   ------------------------------------------------------------------
G2 -----------------------------------------------5----5/7/5---------
   ---------------------------------------------5---5----------------
   ------------------------------------------------------------------
   ------------------------------------------------------------------

00:57
                         Sib
   Las lentejuelas de un traje
   ------------------------5---------------
   ------------------------6-6-----6-------
G2 ----------------------------5/7---------
   ----------------------------------------
   ----------------------------------------
   ----------------------------------------

1:00
                  Rem
Me hicieron la parada
   ----------------------------8/10-10-8-8-
   ----------------------------8/10-10-8-8-
G2 ----------------------------------------
   ----------------5/7-7-5/7-7-------------
   ----------------------------------------
   ----------------------------------------

01:05
   Rem                                    Do
   Era una rubia preciosa llevaba minifalta
   --------------------------------------------------3---------------
   --------------------------------------------5-3/5-----------------
G2 ------------------------------------------5-----------------------
   ------------------------------------------------------------------
   ------------------------------------------------------------------
   ------------------------------------------------------------------

01:10
                         Sib
   El escote en su espalda
   ------------------------8---------------
   -------------------------8--------------
G2 ----------------------------------------
   ----------------------------------------
   ----------------------------------------
   ----------------------------------------

1:13                                          1:18     1:19
                     Rem
   Llegaba justo a la gloria
   ------------------------------------------------------------------
   ----------------------------6p5-----------------------------------
G2 --------------------------------7--------------7--------5---------
   --------------------------7-------7-5/7-5----7---7----5---5-------
   -------------------------------------------5--------3-------------
   ------------------------------------------------------------------

-------------------------------
-------------------------------
PRECORO (Aqui no va G1)
1:20
   Fa             Do                  Rem
       Una lagrima negra rodaba en su mejilla
   ------------------------------------------------------------------
   --------1--------------------------------6-5h6p5---6--------------
G2 ------2---2-----5------5---------------7---------7-----7----5-----
   ----3-------3----5----5--5------------7---------------7-7--5-5----
   ---------------------3-----3---------5---------------5----3-------
   -1----------------------------------------------------------------
      [^^^^^^^^^^^^^^^^^^^^^^^^^]
       (asi acompañe este parte,
  se puede acompañar con un arpegio)

1:26
   Fa             Do                  Rem
       Mientras que el retrovisor decia ve que pantarrillas
   ------------------------------------------------------------------
   --------1--------------------------------------------6-5h6p5---6--
G2 ------2---2-----5------5---------------------------7----------7---
   ----3-------3----5----5--5------------------------7---------------
   ---------------------3-----3---------------------5----------------
   -1----------------------------------------------------------------


 1:31 1:32            1:33               1:36/1:37
   Sib                Fa       Dom       Rem
        Yo vi un poco maaaaaaaaaaaaaaaaaaaaaaaas
   ------------------------------------------------------------------
   ----------------------1-1--------5-5-------6-5h6p5---6------------
G2 ---7-7--------------2-2-2------5-5-5-----7----------7-------------
   --8----------------3----------5----------7------------------------
   -8--------------------------3----------5--------------------------
   ------------------1-----------------------------------------------
                                                          ^^
                                           Seguir arpejeando en Rem


-----------------------------------------------
-----------------------------------------------

ESTROFAS

1:42
   Rem                                         Do
   Eran las diez con cuarenta zizaguebada en reforma
                                                --------------------
                                                --5-6/8-8-----------
                                             G2 ----------5---------
                                                --------------------
                                                --------------------
                                                --------------------
1:47                    1:49
                     Sib
   Me dijo me llamo Norma
                        ---8----------------
                        -----8/10-----------
                     G2 ----------10--------
                        --------------------
                        --------------------
                        --------------------
1:51
                        Rem
   Mientras cruzaba la pierna
                        ---10/12-12---------8/10-10-8-8-
                        --------------------8/10-10-8-8-
                     G2 -------------9h10p6-------------
                        --------------------------------
                        --------------------------------
                        --------------------------------

1:55
   Rem                                             Do
   Saco un cigarro algo extraño de esos que te dan risa
                                                --------------------
                                                --5-6/8-5-6p5-------
                                             G2 --------------------
                                                --------------------
                                                --------------------
                                                --------------------
2:00
                      Sib
   Le ofreci fuego de prisa
                        ---8--6-------------
                        ---6----6---6-------
                     G2 ---7------7---------
                        --------------------
                        --------------------
                        --------------------
2:04
                      Rem
   Y me temblaba la mano
                        --------------------------------
                        --------------------------------
                     G2 --7p5---------------------------
                        -----p7-5-7---5h7p5---5-7-------
                        -------------------p8-----------
                        --------------------------------

2:09
   Rem                                         Do
   Le pregunte por quien llora me dijo por un tipo
                                                --------------------
                                                --------------------
                                             G2 ------5-------------
                                                --5/7---5-5/7-------
                                                --------------------
                                                --------------------
2:14
                       Sib
   que se cree que por rico
                        -----0----0h1-------
                        ---3----3-----------
                     G2 --------------------
                        --------------------
                        --------------------
                        --------------------
2:17
                      Rem
   puede venir a engañarme
                        --------------------------------
                        ----5-6-5-----------------------
                     G2 --7-------7------------7-----5--
                        ------------5h7-5-----7-7---5-5-
                        --------------------5-----3-----
                        --------------------------------

A continuación viene de nuevo el precoro, lo pueden acompañar
como el precoro anterior sino arpegean siguiendo la forma
de las notas:

PRECORO
Fa                   Do                    Rem
No caiga usted por amor usted debe de levantarse le dije
Fa                   Do                    Rem      Sib
cuente con un servidor si lo que quiere es vengarse
           Fa   Do   Rem
y me sonrioooooooooooo

 ------------
| !!!CORO!!! |
 ------------
Sib                       Do                     Fa
¿Qué es lo que hace un taxista seduciendo a la vida?
Sib                       Do                     Fa
¿Qué es lo que hace un taxista construyendo un herida?
Sib                       Do                   Rem
¿Qué es lo que hace un taxista enfrente de un dama?
Sib                       Do                     Rem     Sib
¿Qué es lo que hace un taxista con sus sueños de cama?
          Fa   Do     Rem
Me pregunteeeeeeeeeeeee
-----------------------

--------------------------------------------------------------
BUENO, hasta este punto se se han dado cuenta hay muchos
arpegios diferentes en todas las estrofas, no hay
repeticiones ni nada, asi que pueden seguir la cancion
muy bien haciendo G1 en las estrofas y G2 arpejeando
al final de cada linea de estrofas. Pero no olviden hacer
los riffs que le dan gusto a la cancion, como el riff antes
del precoro, etc.
-------------------------------------------------------------

Rem                                        Do
Lo vi abrazando y besando a una humilde muchacha
                   Sib                  Rem
Es de clase muy sencilla, lo sé por su facha
Rem                                       Do
Me sonreía en el espejo y se sentaba de lado
                 Sib                     Rem
Yo estaba idiotizado, con el espejo empañado

riff estrofa
   ----8/10-10-8-8---
   ----8/10-10-8-8---
G2 ------------------
   ------------------
   ------------------
   ------------------


Rem                                          Do
Me dijo dobla en la esquina iremos hasta mi casa
                       Sib                          Rem
Después de un par de tequilas veremos qué es lo que pasa

riff precoro
   ------------------
   ------------------
G2 ------7-------5---
   ----7---7---5---5-
   --5-------3-------
   ------------------

Fa              Do                         Rem
Para que describir lo que hicimos en la alfombra

riff precoro
   ------------------
   ------------------
G2 ------7-------5---
   ----7---7---5---5-
   --5-------3-------
   ------------------

Fa              Do                         Rem    Sib
Si basta con resumir que le besé hasta la sombra
           Fa    Do     Rem
y un poco máaaaaaaaaaaaaas.

Rem (un tiempo)

-------------------------------------------------------

Rem                                               Do
No se sienta Ud. tan sola, sufro aunque no es lo mismo
                 Sib                   Rem
Mi mujer y mi horario han abierto un abismo
Rem                                           Do
Como se sufre a ambos lados de las clases sociales
                    Sib                      Rem
Ud. sufre en su mansión, yo sufro en los arrabales
Rem                                      Do
Me dijo vente conmigo que sepa no estoy sola
                       Sib                         Rem
Se hizo en el pelo una cola, fuimos al bar donde estaban

Rem                                      Do
Entramos precisamente él abrazaba a una chica
                       Sib                      Rem
Mira si es grande el destino y esta ciudad es chica,
           Fa    Do     Rem
era mi mujeeeeeeeeeeeeeeeeer.


 ------------
| !!!CORO!!! |
 ------------
Sib                       Do                     Fa
¿Qué es lo que hace un taxista seduciendo a la vida?
Sib                       Do                     Fa
¿Qué es lo que hace un taxista construyendo un herida?
Sib                       Do                   Rem
¿Qué es lo que hace un taxista cuando un caballero
Sib                         Do        Rem     Sib
Coincide con su mujer en horario y esmero?
          Fa   Do     Rem
Me pregunteeeeeeeeeeeee
-----------------------

Rem                                    Do
Desde aquella noche ellos juegan a engañarnos
                   Sib
Se ven en el mismo bar . . .
                                                           Rem
Y la rubia para el taxi siempre a las diez En el mismo... lugar.

Bueno espero que esta cancion les guste tanto como me gusta a mi
Saludos att de Kenjibu
Aviso: Este fichero es trabajo propio de su transcriptor y representa su interpretación personal de la canción. El material contenido en esta página es para exclusivo uso privado, por lo que se prohibe su reproducción o retransmisión, así como su uso para fines comerciales.

Califica esta canción


Comentarios en Facebook