Enviado por:
Glenncho05

Sin Bandera, Si Tu No Estas Aqui

INTRO:
e|-----0-----3---3-------------------0----3---3---7-8-5--------|
B|-1-3---1-----3---3-0--1---1--1-3-----1----3--3-----------6---|
G|--------0----------------2------------0----------------5-----|
D|-----------------2-2----3----2-2----------------------3------|
A|-----3-------2---------------------3------2---------3--------|
E|----------------------1--------------------------------------|



2 PRIMERAS ESTROFAS:
  C     Em     F                G
e|--------------------------1---------3-----|
B|----1------0-------1-------1-------3-3----|
G|---0------0-------2-----2---------0---0---|
D|--2------2-------3---------------0-----0--|
A|-3----------------------------------------|
E|-------0-------1----------------3---------|

   
   C
e|-----------------3-3--------------------|
B|----1------------3-3-1------------------|
G|---0-----------------0------------------|
D|--2-------------------------------------|
A|-3---------------------0-2-3------------|
E|----------------------------------------|

No quiero estar sin ti
Si tu no estas aquí me sobra el aire
No quiero estar así, 
Si tu no estas la gente se hace nadie

Si tu no estas aquí no se
Que diablos hago amándote
Si tu no estas aquí sabrás
Que Dios no va a entender porque te vas

C         Em      F
No quiero estar sin ti
G                                C
Si tu no estas aquí me falta el sueño
C         Em     F
No quiero andar así
G                               C
Latiendo un corazón de amor sin dueño



Em                F
Si tu no estas aquí no se
G                       C
Que diablos hago amándote
Em                F
Si tu no estas aquí sabrás
G                                    F
Que Dios no va a entender porque te vas



C                 Em
Derramare mis sueños si algún día no te tengo
F                     G         C
Lo más grande se hará lo más pequeño
C                          F
Paseare en un cielo sin estrellas esta vez
Dm                       G       Em           A7
Tratando de entender quien hizo un infierno el Paraíso
F             G       
No te vayas nunca 



    C
Porque noooooo?
Em           F
No puedo estar sin ti
G                    C
Si tu no estas aquí, Me quema el aire
Em                F
Si tu no estas aquí sabrás
G                        F         Fm
Que Dios no va a entender porque te vas



FINAL:
e|-----0-----3---3-------------------0----3---3---7-8-5--------|
B|-1-3---1-----3---3-0--1---1--1-3-----1----3--3-----------6---|
G|--------0----------------2------------0----------------5-----|
D|-----------------2-2----3----2-2----------------------3------|
A|-----3-------2---------------------3------2---------3--------|
E|----------------------1--------------------------------------|


   C Em F            C
Si tu no estas... aquiii
Aviso: Este fichero es trabajo propio de su transcriptor y representa su interpretación personal de la canción. El material contenido en esta página es para exclusivo uso privado, por lo que se prohibe su reproducción o retransmisión, así como su uso para fines comerciales.

Califica esta canción


Comentarios en Facebook