Enviado por:
1561380114

No Te Va Gustar, Chau

Hola a todos, este es mi 3er aporte a tusacordes.com
gracias por el espacio ya q no hay mucho material
sobre esta banda
Este es el tema "Chau" de NTVG, espero q les sirva
por cualkier problemita [email protected]

6--------------------------------------
5--------------------------------------
4--------------------------------------
3--------------------------------------
2--------------------------------------
1----10--9---7--5--3--5--7--5----------


6------------------------------------
5------------------------------------
4------------------------------------
3------------------------------------
2------------------------------------
1----5/9---12--7----7/5----5/6-------

6--------------------------------------------
5--------------------------------------------
4--------------------------------------------
3--------------------------------------------
2--------------------------------------------
1---10--9--10--9--7--10--12---14--15---------

6-------------------------------------------
5-------------------------------------------
4-------------------------------------------
3-------------------------------------------
2-------------------------------------------
1---14--15--15--14--14--14--12--12----------

6------------------------------------------------
5------------------------------------------------
4------------------------------------------------
3------------------------------------------------
2------------------------------------------------
1---15--14--12--10---9--10--9--7--6--7--9/10--7--

el solo no esta completo, me falta muy chiquitito para tenerlo todo, pero bueh...lo queria compartir con ustedes...espero q les sirva
Aviso: Este fichero es trabajo propio de su transcriptor y representa su interpretación personal de la canción. El material contenido en esta página es para exclusivo uso privado, por lo que se prohibe su reproducción o retransmisión, así como su uso para fines comerciales.
comentario del colaborador: [email protected] comenten

Califica esta canción


Comentarios en Facebook