Enviado por:
gaston7

No Te Va Gustar, Con El Viento

Imprimir
e)|-----------------------------------|     |
B)|-----------------------------------|     |
G)|-----------------------------------|     |
D)|--5-5--8-8-8--9-9-9--10-10-10-10---| X3  |
A)|--5-5--8-8-8--9-9-9--10-10-10-10---|     |
E)|--3-3--6-6-6--7-7-7--8--8--8--8----|     |
                                            | X2
e)|-----------------------------------|     |
B)|-----------------------------------|     |
G)|-----------------------------------|     |
D)|--5-5--3-3-3--3-3-3--2-2-----------|     |
A)|--5-5--3-3-3--3-3-3--2-2-----------|     |
E)|--3-3--1-1-1--1-1-1--0-0-----------|     |


1er Verso: (haciendo la intro de arriba)
Disfrutar de la tristeza
más que no se haga costumbre
seguirá siendo camino
sin envidiar al de al lado
Sin solo esperar la dicha,
esa que aveces confunde
ese que se cree mas firme
puede estar equivocado.

INTRO:

e)|-----------------------------------|     |
B)|-----------------------------------|     |
G)|-----------------------------------|     |
D)|--5-5--8-8-8--9-9-9--10-10-10-10---| X3  |
A)|--5-5--8-8-8--9-9-9--10-10-10-10---|     |
E)|--3-3--6-6-6--7-7-7--8--8--8--8----|     |
                                            | X1
e)|-----------------------------------|     |
B)|-----------------------------------|     |
G)|-----------------------------------|     |
D)|--5-5--3-3-3--3-3-3--2-2-----------|     |
A)|--5-5--3-3-3--3-3-3--2-2-----------|     |
E)|--3-3--1-1-1--1-1-1--0-0-----------|     |

2do Verso: (haciendo la intro de arriba)
Ya no me sorprende nada
ya no hay nada que me asombre
hay una verdad a oscuras
como duele este momento
Si me dedico a soñar
solo me sale tu nombre
quisiera contarte ahora
lo vacío que me siento.

Interlude:

Cm
Se que un gesto cura todo
       Gm
lo que no lo cura el tiempo
D#
pero si la magia muere
D
sola se va con el viento.

e)|-----------------------------------|     |
B)|-----------------------------------|     |
G)|-----------------------------------|     |
D)|--5-5--8-8-8--9-9-9--10-10-10-10---| X3  |
A)|--5-5--8-8-8--9-9-9--10-10-10-10---|     |
E)|--3-3--6-6-6--7-7-7--8--8--8--8----|     |
                                            | X1
e)|-----------------------------------|     |
B)|-----------------------------------|     |
G)|-----------------------------------|     |
D)|--5-5--3-3-3--3-3-3--2-2-----------|     |
A)|--5-5--3-3-3--3-3-3--2-2-----------|     |
E)|--3-3--1-1-1--1-1-1--0-0-----------|     |
Aviso: Este fichero es trabajo propio de su transcriptor y representa su interpretación personal de la canción. El material contenido en esta página es para exclusivo uso privado, por lo que se prohibe su reproducción o retransmisión, así como su uso para fines comerciales.

Califica esta canción


Comentarios en Facebook