Enviado por:
angeell

Reik, Sabes (intro)

Imprimir
e|------------|----------|------0---|------------|
B|-------2----|----------|--------3-|-------0----|
G|---------4--|-----2h0--|----2-----|---------2--|
D|-----4------|---0------|--0-------|-----2------|
A|---2--------|----------|----------|---0--------|
E|------------|-3--------|----------|------------|

e|------------|----------|------------|
B|-------2----|----------|------0-----|
G|---------4--|-----2h0--|--------0-2v|
D|-----4------|---0------|----2-----2v|
A|---2--------|----------|--0---------|
E|------------|-3--------|------------|
Aviso: Este fichero es trabajo propio de su transcriptor y representa su interpretación personal de la canción. El material contenido en esta página es para exclusivo uso privado, por lo que se prohibe su reproducción o retransmisión, así como su uso para fines comerciales.

Califica esta canción


Comentarios en Facebook