Enviado por:
play223

Danilo Montero, Bueno Es Alabar

Imprimir
BUENO ES ALABAR EN FORMA COMO DE SALSA


G-----3---3----------------------------
D-------------3--4--5---5---3---5----3       X2
A----------------------------------------
E-----------------------------------------


G----3-3---------------------5--------------------
D---------3--4---5--6---7------5-----7-----5-5-5
A----------------------------------------------------
E-----------------------------------------------------

Y EMPIEZA DE NUEVO
Aviso: Este fichero es trabajo propio de su transcriptor y representa su interpretación personal de la canción. El material contenido en esta página es para exclusivo uso privado, por lo que se prohibe su reproducción o retransmisión, así como su uso para fines comerciales.

Califica esta canción


Comentarios en Facebook