Enviado por:
brake311

Gorillaz, Feel Good Inc

intro:

--------------------------------------------------------
--------------------------------------------------------
-------------------------------------------------------- X2
--------------------------------------------------------
------2--2-2-4--0---------------------------------------
------3-3-----------------------------------------------

: esta parte se repite solo que la 2° es asi

--------------------------------------------------------
--------------------------------------------------------
-------------------------------------------------------- 
--------------------------------------------------------
------2--2-2-4--0---------------------------------------
------3-3/12--------------------------------------------
Aviso: Este fichero es trabajo propio de su transcriptor y representa su interpretación personal de la canción. El material contenido en esta página es para exclusivo uso privado, por lo que se prohibe su reproducción o retransmisión, así como su uso para fines comerciales.
comentario del colaborador: ROCKEROS FOREVER

Califica esta canción


Comentarios en Facebook