Enviado por:
murdocbass

Gorillaz, Feel Good Inc

G-----------------------------
D-----------9-8--6--9-8-4-1---
A--6---6-8-9------------------   (x16)
E-----------------------------

(Musicá sin bajo)

G-----------------------------
D-----------9-8--6--9-8-4-1---
A--6---6-8-9------------------   (x12)
E-----------------------------

(Musicá sin bajo)

G-----------------------------
D-----------9-8--6--9-8-4-1---
A--6---6-8-9------------------   (x9)
E-----------------------------
Aviso: Este fichero es trabajo propio de su transcriptor y representa su interpretación personal de la canción. El material contenido en esta página es para exclusivo uso privado, por lo que se prohibe su reproducción o retransmisión, así como su uso para fines comerciales.

Califica esta canción


Comentarios en Facebook