Enviado por:
qqqq

Enanitos Verdes, Tu Carcel

INTRO

G--11--11/9-7----7-7-9-9h11-11-7-9-9-7-6-----------
D--------------------------------------------------
A--------------------------------------------------
E--------------------------------------------------


E-------------------------------------------------
B-------------------------------------------------
G--6-6-7-9-9-6-7--7-6-4---4-4-4-7-6-4-6/7/9-9-----
D-------------------------------------------------
A-------------------------------------------------
E-------------------------------------------------


     D                             A 

G--11--11/9-7----7-7-9-9h11-11-7-9-9-7-6----------
D-------------------------------------------------
A-------------------------------------------------
E-------------------------------------------------

              Bm          G                  A 
E-------------------------------------------------
B-------------------------------------------------
G--6-6-7-9-9-6-7--7-6-4---4-4-4-7-6-4-6/7/9-9-----
D-------------------------------------------------
A-------------------------------------------------
E-------------------------------------------------


D
Te vas amor si así lo quieres
      A 
que puedo yo hacer, tu vanidad
        Bm
no te deja entender
G                      A 
  que en la pobreza se sabe querer.

 D
Quiero llorar y me destroza
     A 
que pienses así, y mas que
           Bm
ahora me quede sin ti
G                    A            
  me duele lo que tu vas a sufrir.

 D
Pero recuerda, nadie es perfecto
  A 
y tu lo veras mas de mil cosas
    Bm
mejores tendrás
G                    A          
  pero un cariño sincero jamás.

 D
Vete olvidando,de esto que hoy dejas
   A 
y que cambiaras, por la aventura que
   Bm
tu ya veras.
G                 A 
  Será tu cárcel y nunca saldrás.

     D                             A 

G--11--11/9-7----7-7-9-9h11-11-7-9-9-7-6----------
D-------------------------------------------------
A-------------------------------------------------
E-------------------------------------------------

              Bm          G                  A 
E-----------------------------------------------------------
B-----------------------------------------------------------
G--6-6-7-9-9-6-7--7-6-4---4-4-4-7-6-4-6/7/9-9--9h119h119h11-
D-----------------------------------------------------------
A-----------------------------------------------------------
E-----------------------------------------------------------

 D
Quiero llorar y me destroza
     A 
que pienses así, y mas que
           Bm
ahora me quede sin ti
G                    A             A7
  me duele lo que tu vas a sufrir.

 D
Pero recuerda, nadie es perfecto
  A 
y tu lo veras más de mil cosas
    Bm
mejores tendrás
G                    A          A7
  pero un cariño sincero jamás.

 D
Vete olvidando,de esto que hoy dejas
   A 
y que cambiarás, por la aventura que
   Bm
tu ya veras.
G                 A 
  Será tu cárcel y nunca saldrás.


 D
Pero recuerda, nadie es perfecto
  A 
y tu lo veras mas de mil cosas
    Bm
mejores tendrás
G                    A          A7
  pero un cariño sincero jamás.

 D
Vete olvidando,de esto que hoy dejas
   A 
y que cambiaras, por la aventura que
   Bm
tu ya veras.
G                 A   A7         D
  Será tu cárcel y nuuunca saldrás.
Aviso: Este fichero es trabajo propio de su transcriptor y representa su interpretación personal de la canción. El material contenido en esta página es para exclusivo uso privado, por lo que se prohibe su reproducción o retransmisión, así como su uso para fines comerciales.

Califica esta canción


Comentarios en Facebook