Enviado por:
master_of_masters

Reik, Yo Quisiera

aqui esta la cancion


INTRO

G---------------------------------------
D---------------------------------------
A------------------5-5---5-5-5---5------
E--5-5---5-5-5---5----------------------

VERSO X2

G-------------------------------------------------------------------
D--------------------------------------------------2-2---2-2-2---2--
A------------------5-5---5-5-5---5-2-2---2-2-2---2------------------
E--5-5---5-5-5---5--------------------------------------------------

PRE-CORO X2

G---------------------------------------------------------------------
D--------------------------------------------------2-2---2-2-2---2----
A--5-5---5-5-5---5-4-4---4-4-4---4-2-2---2-2-2---2--------------------
E---------------------------------------------------------------------

CORO X2

G---------------------------------------------------------------------
D--------------------------------------------------2-2---2-2-2---2----
A--5-5---5-5-5---5-4-4---4-4-4---4-2-2---2-2-2---2--------------------
E---------------------------------------------------------------------


VERSO X2


PRE-CORO X2


CORO (HASTA QUE CASI ACABA LA CANCION)


TERMINA CON

E--5-5---5-5-5---5-5-5---5-5-5---5-5~~~~
Aviso: Este fichero es trabajo propio de su transcriptor y representa su interpretación personal de la canción. El material contenido en esta página es para exclusivo uso privado, por lo que se prohibe su reproducción o retransmisión, así como su uso para fines comerciales.

Califica esta canción


Comentarios en Facebook