Acordes y tablaturas para guitarra

Acordes y Tablaturas
Usuario: Password:

Buscar:
Acordes y Tablaturas >> Letra P >> Acordes de Panda >> Adheridos Separados
Tablatura de Adheridos Separados, Panda

Adheridos Separados

Panda






ojala les guste lo que saque y un saludo al squadronNAM
   
   INTRO
    
   
    e--------------------------
    b--------------------------
    g--------------------------  x2
    d-4/8-8-8-8/12-13-12-12-10-
    a--------------------------
    E--------------------------

    
    e------7-7----7--7---11-
    b--7-7-----7---7---------
    g-9-9-9-9---9-9-9---------
    d-------------------------
    a-------------------------
    E-------------------------

    luego se toca pura bateria y bajo, despues entra pp con estos acordes, pero con un capotraste en el traste 4.
   
    guitarra 2

      c   d g   c d g d
    e-----6-7-----6-7-6-
    b-55--7-7--55-7-7-7--
    g-----6-------6---6- x varias veces hasta el coro
    d-66-------66-------  
    a-77----6--77---6---
    E-------7-------7---

   coro
    guitarra 1
    
    e--------------------------------------------------
    b--------------------------------------------------
    g---------------------------------66666666-9999999-
    d2222222-666-444--2222222-666-444-66666666-9999999-
    a2222222-666-444--2222222-666-444-44444444-7777777-
    E--------444-222----------444-222------------------


    guitarra 2 (siempre con el capotraste en el traste 4)
    primero se toca lo de x2 y despues lo segundo y junto es x2 creo
    
    e--------------6666-            -777-6666-
    b-5555--5555---7777-            -777-7777-
    g-------6666---6666--x2         -----6666-
    d-6666--6666--------            ----------
    a-7777--------------            -666------
    E------------------             -777------


   luego se repite el intro

    despues va esto

     guitarra 2

    e------6666-77------6666-7-
    b-5555-7777-77-5555-7777-7-
    g------6666---------6666---  x unas cuatro veces no estoy 
    d-7777------66-7777--------    seguro jaja
    a-6666------77-6666------6-
    E------------------------7-

     luego de unas veces de tocar lo de la guitarra 2 se toca esto
   guitarra 1
 
    e-----------------
    b-----------------
    g-----------------
    d-12~-12-13-12~-8~
    a-----------------
    E-----------------


    e-11--11^12----
    b-----------12-
    g-------------- x2   
    d--------------
    a--------------
    E--------------

   
    e--------------------------------------
    b-12--12--12---12---11--11--11---11----
    g---11--11---11---11--11--11--11----11- x muchas veces
    d--------------------------------------
    a--------------------------------------
    E--------------------------------------


    a guitarra 2 continua con lo mismo y la dos termina con el intro.



    ojala les sea util comente xfa y arriba pxndx

Que te parecio? Calificalo con estrellas!!

Rating: 5.8/10 (99 votos)

Este fichero es trabajo propio de su transcriptor y representa su interpretación personal de la canción. El material contenido en esta página es para exclusivo uso privado, por lo que se prohibe su reproducción o retransmisión, así como su uso para fines comerciales.


Deja tus comentarios:

Letras de Panda
Letras de canciones | Musica Independiente