Enviado por:
Pengui_89

Abel Pintos, Bailando Con Tu Sombra

Imprimir
e|---------2-2----------------------------------------------|
B|-3-3-3-5-----5-3-2-2-2-3-5--------2-3-3-2-----------------|
G|----------------------------4-4-4---------4-2-0---0-2-----| X2 
D|------------------------------------------------4---------|
A|----------------------------------------------------------|
E|----------------------------------------------------------|

e|------------------|
B|---5-5---3-3------|
G|-2-----0-----0----|
D|---------------4--|
A|------------------|
E|------------------|

e|-------------------------2-|
B|-2-2-2-3-5-5-3-2-3-3-3-5---|
G|---------------------------|
D|---------------------------|
A|---------------------------|
E|---------------------------|


e|----------------------------------|
B|-3---3----------------------------|
G|-------4-2---4--------------------|
D|----------------4-0-2-------------|
A|----------------------------------|
E|----------------------------------|
Aviso: Este fichero es trabajo propio de su transcriptor y representa su interpretación personal de la canción. El material contenido en esta página es para exclusivo uso privado, por lo que se prohibe su reproducción o retransmisión, así como su uso para fines comerciales.

Califica esta canción


Comentarios en Facebook